Institute - God Gave Us Land Chords & Tabs

 

God Gave Us Land Chords & Tabs

Institute Chords & Tabs

Version: 1 Type: Tab 0 ratings
1 star 2 stars 3 stars 4 stars 5 stars
comments

God Gave Us Land Tab

"God Gave Us land"
Tabbed by: GOLDENSUITCASE

Tuning: Standard (shocker!!)

Opening bassline:
e|---------------------------------------------------------------------------|
B|---------------------------------------------------------------------------|
G|---------------------------------------------------------------------------|
D|---------------------------------------------------------------------------|
A|-1-1------------1-1------------1-1-----------------------------------------|
E|-----1-4-4-1-4------1-4-4-1-4------1-4-4-1-2-4-1-4-4-1-2-4-----------------|

Verse: Let each note ring out
e|---------------------------------------------------------------------------|
B|-12-------8--------12--------8---------------------------------------------|
G|-9--------9--------9---------9---------------------------------------------|
D|---------------------------------------------------------------------------|
A|---------------------------------------------------------------------------|
E|---------------------------------------------------------------------------|

Chorus:
e|---------------------------------------------------------------------------|
B|---------------------------------------------------------------------------|
G|-9-9-9-9-9-9-9-9-9-9-9-9-9-9-9-9--5-5-5-5-5-5-5-5-5-5-5-5-5-5-5-5----------|
D|-9-9-9-9-9-9-9-9-9-9-9-9-9-9-9-9--5-5-5-5-5-5-5-5-5-5-5-5-5-5-5-5----------|
A|-7-7-7-7-7-7-7-7-7-7-7-7-7-7-7-7--3-3-3-3-3-3-3-3-3-3-3-3-3-3-3-3----------|
E|---------------------------------------------------------------------------|
[ Tab from: http://www.guitartabs.cc/tabs/i/institute/god_gave_us_land_tab.html ]
"I was thinking to myself..."
e|---------------------------------------------------------------------------|
B|---------------------------------------------------------------------------|
G|-9-9-9-9-9---9-9-9-9-9---9-9-9-9-9---9-9-9-9-9-----------------------------|
D|-9-9-9-9-9---9-9-9-9-9---9-9-9-9-9---9-9-9-9-9-----------------------------|
A|-7-7-7-7-7---7-7-7-7-7---7-7-7-7-7---7-7-7-7-7-----------------------------|
E|---------------------------------------------------------------------------|

Solo (or bridge):
e|-------7P0---------5P0-----------------------------------------------------|
B|-5P0---------5P0---------5P0---0-------------------------------------------|
G|-----7-----7-----7-----7-----7---------------------------------------------|
D|---------------------------------------------------------------------------|
A|---------------------------------------------------------------------------|
E|---------------------------------------------------------------------------|
Repeat 1X and then throughout the chorus

Chris's part during chorus.  The first three notes, he plays a series of 
throughout in different variations until he comes in with the solo 
(the 9-10-9-12 part)
e|--------------------------------19-15-14-----------------------------------|
B|-----------------------------------------15--------------------------------|
G|-12-11-9-------------------------------------------------------------------|
D|------------9-10-9-12--9-10-9-12-------------9-10-9-12---------------------|
A|---------------------------------------------------------------------------|
E|---------------------------------------------------------------------------|

"Everything, everything..."
e|---------------------------------------------------------------------------|
B|---------------------------------------------------------------------------|
G|-9-9-9-9-9---9-9-9-9-9---9-9-9-9-9---9-9-9-9-9-----------------------------|
D|-9-9-9-9-9---9-9-9-9-9---9-9-9-9-9---9-9-9-9-9-----------------------------|
A|-7-7-7-7-7---7-7-7-7-7---7-7-7-7-7---7-7-7-7-7-----------------------------|
E|---------------------------------------------------------------------------|
Comments