Institute - Buzz Of My System Chords & Tabs

 

Buzz Of My System Chords & Tabs

Institute Chords & Tabs

Version: 1 Type: Tab 0 ratings
1 star 2 stars 3 stars 4 stars 5 stars
comments

Buzz Of My System Tab

   
-------------------------------------------------------------------------------
		     The Buzz of My System - Institute
-------------------------------------------------------------------------------
Tabbed by: Goldensuitcase
Email:

Tuning: 1/2 Step Down , Dropped D

Intro:
e|----------------------------------------------------------------------------------------------------|
B|----------------------------------------------------------------------------------------------------|
G|----------------------------------------------------------------------------------------------------|
D|-------3--------------------------3-------------------------3-------------------------3-------------|
A|---3H5---5----------2P0---0-5P0-----5---------2P0---0-5P0-----5---------2P0---0-5P0-----5---------2-|
D|-0-----------0--5P0-----0-------0------0--5P0-----0-------0------0--5P0-----0-------0------0--5P0---|

Verse:
e|---------------------------------------------------------------------------|
B|---------------------------------------------------------------------------|
G|---------------------------------------------------------------------------|
D|-----------------------------------------------------------0---------------|
A|-3H5-5-5--3-3-3H5-3--3-3-3-Repeat 10X then end with----3H5-0---------------|
D|-----------------------------------------------------------0---------------|

Chorus: Each note struck about 9 times
e|---------------------------------------------------------------------------|
B|------------------------3----------5---------------------------------------|
G|-9----------12----------2----------4---------------------------------------|
D|-7----------10----------0----------3---------------------------------------|
A|-7----------10----------0----------3---------------------------------------|
D|-7----------10----------0----------3---------------------------------------|
Repeat 1X
[ Tab from: http://www.guitartabs.cc/tabs/i/institute/buzz_of_my_system_tab.html ]
Pre second verse
e|---------------------------------------------------------------------------|
B|---------------------------------------------------------------------------|
G|---------------------------------------------------------------------------|
D|---------------------------------------------------------------------------|
A|-3H5---5--3-3-3H5-5--3-3-3---3H5---5--3-3-3H5-5--3-3-3---------------------|
D|-----0---------------------------0-----------------------------------------|

Bridge:
e|---------------------------------------------------------------------------|
B|---------------------------------------------------------------------------|
G|---------------------------------------------------------------------------|
D|-0-0--0-3^--0-0--0-0--10-12-10-12---0-0--0-3^--0-0--0-0--10-12-10-12---0-0-|
A|-0-0--0-3^--0-0--0-0--10-12-10-12---0-0--0-3^--0-0--0-0--10-12-10-12---0-0-|
D|-0-0--0-3^--0-0--0-0--10-12-10-12---0-0--0-3^--0-0--0-0--10-12-10-12---0-0-|

e|---------------------------------------------------------------------------|
B|---------------------------------------------------------------------------|
G|---------------------------------------------------------------------------|
D|-0-3^--0-0--10-12-10-9-10-9---0-0--0-3^--0-0--10-12-10-12---0-0--0-3^--0-0-|
A|-0-3^--0-0--10-12-10-9-10-9---0-0--0-3^--0-0--10-12-10-12---0-0--0-3^--0-0-|
D|-0-3^--0-0--10-12-10-9-10-9---0-0--0-3^--0-0--10-12-10-12---0-0--0-3^--0-0-|

Chris's licks:
e|---------------------------------10^bend up and down for ending------------|
B|-8/10 before chorus--------------------------------------------------------|
G|---------------------------------------------------------------------------|
D|---------------------------------------------------------------------------|
A|---------------------------------------------------------------------------|
D|---------------------------------------------------------------------------|

| /  slide up
| \  slide down
| h  hammer-on
| p  pull-off
| ~  vibrato
| +  harmonic
| x  Mute note
===============================================================================
Comments