Institute - Bulletproof Skin Chords & Tabs

 

Bulletproof Skin Chords & Tabs

Institute Chords & Tabs

Version: 1 Type: Tab 0 ratings
1 star 2 stars 3 stars 4 stars 5 stars
comments

Bulletproof Skin Tab

   
Bulletproof skin by Institute


Well, I think this must must be a pre-Première for you guys! Before the album (or 
even is
out, there's already a tab of it, well, i'm an ex-bush fan for somethin huh :-P A lil background
on the band: this is the newly formed group behind Gavin Rossdale, the well-known 
of
Bush. For more info, visit http://www.institutemusic.com


Standard tuning (E A D G B E - from low to high)


Opening:

|-------------------|
|-------------------|
|-------------------|
|-------------------|
|-6-6-6-6-6-6-6-6-6-|
|-------------------| repeat untill 0:30

Adjusted Main Riff

|------------------------------------------|
|------------------------------------------|
|----------------------1111111111-7-7-7777-|
|-8--8-9-8--8--8-8-8-8-1111111111-7-7-7777-|
|-8--8-9-8--8--8-8-8-8-9-9-9-9-9--5-5-5555-|
|-6--6/7\6--6--6-6-6-6---------------------| x2

You play this without any pause in it, listen to the song and you'll hear it

Noise

Lead in to Main riff

tabbed by Tim Verheyden

PS, i'm working on the second guitar, just gimme time ;-)
|-------------------|
|-------------------|
|-------------------|
|-8--8-9-8--8--8-8--|
|-8--8-9-8--8--8-8--|
|-6--6/7\6--6--6-6--| x4 (you hear a stop every time)

Main Riff

---------------------|---------------------|
---------------------|---------------------|
---------------------|-1111111111-7-7-7777-|
-8--8/9\8--8--8-8----|-1111111111-7-7-7777-|
-8--8/9\8--8--8-8----|-9-9-9-9-9--5-5-5555-|
-6--6/7\6--6--6-6-x3-|---------------------|

You play this whole line 3 times, that means you play the first part 12 times... for making
myself clear...


Lead-in to chorus


|-----------------|
|-----------------|
|-----------------|
|-88-------88-----|
|-88-------88-----|
|-66-------66-----|

Chorus

[ Tab from: http://www.guitartabs.cc/tabs/i/institute/bulletproof_skin_tab.html ]
|----------------------------------------------------|
|----------------------------------------------------|
|----------------------------------------------------|
|8--8--8-888--11-11-11111111-4--4--4-444-3--3--3-333-|
|8--8--8-888--11-11-11111111-4--4--4-444-3--3--3-333-|
|6--6--6-666--9--9--9-9-9-9--2--2--2-222-1--1--1-111-| x2

Lead in to Main riff

|-------------------|
|-------------------|
|-------------------|
|-8--8/9\8--8--8-8--|
|-8--8/9\8--8--8-8--|
|-6--6/7\6--6--6-6--| x2 (you hear a stop every time)

|---------------------|---------------------|
|---------------------|---------------------|
|---------------------|-1111111111-7-7-7777-|
|-8--8/9\8--8--8-8----|-1111111111-7-7-7777-|
|-8--8/9\8--8--8-8----|-9-9-9-9-9--5-5-5555-|
|-6--6/7\6--6--6-6-x3-|---------------------|             x3


Lead-in to chorus


|-----------------|
|-----------------|
|-----------------|
|-88-------88-----|
|-88-------88-----|
|-66-------66-----|


Chorus


|----------------------------------------------------|
|----------------------------------------------------|
|----------------------------------------------------|
|8--8--8-888--11-11-11111111-4--4--4-444-3--3--3-333-|
|8--8--8-888--11-11-11111111-4--4--4-444-3--3--3-333-|
|6--6--6-666--9--9--9-9-9-9--2--2--2-222-1--1--1-111-| x4

bridge

|---------------------------|
|---------------------------|
|---------------------------|
|-11------8-------4-------3-|
|-11------8-------4-------3-|
|-9-------6-------2-------1-|

Chorus


|----------------------------------------------------|
|----------------------------------------------------|
|----------------------------------------------------|
|8--8--8-888--11-11-11111111-4--4--4-444-3--3--3-333-|
|8--8--8-888--11-11-11111111-4--4--4-444-3--3--3-333-|
|6--6--6-666--9--9--9-9-9-9--2--2--2-222-1--1--1-111-| x4

ending


only bassguitar
Comments