Institute - Bulletproof Skin Chords & Tabs

 

Bulletproof Skin Chords & Tabs

Institute Chords & Tabs

Version: 1 Type: Bass Tab

Bulletproof Skin Bass Tab

Artist - institute
Song - bullet-proof skin
Album - Distort Yourself
Tabbed by - Michael Cromarty and Andrew Park


|-----------------------|
|-----------------------|
|-----------------------|
|---6--6/8\6--6--6-6-6--|  x4

|-----------------------|--------------------------|
|-----------------------|--------------------------|
|-----------------------|-9-9-9-9-9----6-6-6666----|
|---6--6/8\6--6--6-6-6--|--------------------------|


lead into chorus

[ Tab from: http://www.guitartabs.cc/tabs/i/institute/bulletproof_skin_btab.html ]
|-----------------|
|-----------------|
|-----------------|
|-66-------66-----|


Chorus

|----------------------------------------------------|
|----------------------------------------------------|
|----------------------------------------------------|
|6--6--6-666--9--9--9-9-9-9--2--2--2-222-1--1--1-111-| x2

Bridge

|------------------------------------|
|------------------------------------|
|------------------------------------|
|6--------9--------2--------1--------| x2