Institute - Ambulances Chords & Tabs

 

Ambulances Chords & Tabs

Institute Chords & Tabs

Version: 1 Type: Tab

Ambulances Tab

Artist: Institute
song: Ambulances
album: distort yourself
tab by: mr_munners@hotmail.com

this is the whole song in order...
Intro
 guitar 1
|-13-11-13-11-13-11---9-8-9-8-9-8--|
|----------------------------------|
|----------------------------------|
|----------------------------------|
|----------------------------------|
|----------------------------------|
|guitar 2
|-----------------------------------|
|-----------------------------------|
|9---9---9---9---9---9--9--9--9--9--|
|-10--10--10--10--10--9--9--9--9--9-|
|-----------------------------------|
|-----------------------------------|

verse
 guitar 1
|---------------------------------|
|---------------------------------|
|---------------------------------|
|-9~--------7~--------------------|
|--------------------10~-------9~-|
|---------------------------------|
|guitar 2
|---------------------------------|
|---------------------------------|
|---------------------------------|
|---------------------------------|
|---------------------------------|
|---------------------------------|

Chorus
 guitar 1
|---------------------------------|
|---------------------------------|
|---------------------------------|
|-9~--------(7)~-----9~------(7)~-|
|---------------------------------|
|---------------------------------|
|guitar 2
|---------------------------------|
|---------------------------------|
|---------------------------------|
|-10~----------------9~-----------|
|-10~----------------9~-----------|
|-8~-----------------7~-----------|

 pre verse
guitar 1
|-13-11-13-11-13-11---9-8-9-8-9-8--|
|----------------------------------|
|----------------------------------|
|----------------------------------|
|----------------------------------|
|----------------------------------|
|guitar 2
|-----------------------------------|
|-----------------------------------|
|9---9---9---9---9---9--9--9--9--9--|
|-10--10--10--10--10--9--9--9--9--9-|
|-----------------------------------|
|-----------------------------------|
[ Tab from: http://www.guitartabs.cc/tabs/i/institute/ambulances_tab.html ]
verse
 guitar 1
|---------------------------------|
|---------------------------------|
|---------------------------------|
|-9~--------7~--------------------|
|--------------------10~-------9~-|
|---------------------------------|
|guitar 2
|---------------------------------|
|---------------------------------|
|---------------------------------|
|---------------------------------|
|---------------------------------|
|---------------------------------|


Chorus
 guitar 1
|---------------------------------|
|---------------------------------|
|---------------------------------|
|-9~--------(7)~-----9~------(7)~-|
|---------------------------------|
|---------------------------------|
|guitar 2
|---------------------------------|
|---------------------------------|
|---------------------------------|
|-10~----------------9~-----------|
|-10~----------------9~-----------|
|-8~-----------------7~-----------|

3rd verse
guitar 1
|---------------------------------|
|---------------------------------|
|---------------------------------|
|-6-6-6-6-6-6--5-5--3-3-3-3-------|
|-4-4-4-4-4-4--3-3--1-1-1-1-------|
|---------------------------------|
|guitar 2
|---------------------------------|
|---------------------------------|
|---------------------------------|
|-111111111111-1010-8-8-8-8-------|
|-111111111111-1010-8-8-8-8-------|
|-9-9-9-9-9-9--8-8--6-6-6-6-------|

 interlude
 guitar 1
|-13-11--13/11-13/11--13-11--13/11-13/11-|
|----------------------------------------|
|----------------------------------------|
|----------------------------------------|
|----------------------------------------|
|----------------------------------------|
|guitar 2
|----------------------------------------|
|----------------------------------------|
|----------------------------------------|
|----------------------------------------|
|----------------------------------------|
|----------------------------------------|

final chorus/outro
 guitar 1
|-13-11-13-11-13-11---9-8-9-8-9-8--|
|----------------------------------|
|----------------------------------|
|----------------------------------|
|----------------------------------|
|----------------------------------|
|guitar 2
|----------------------------------|
|----------------------------------|
|----------------------------------|
|-10~----------------9~------------|
|-10~----------------9~------------|
|-8~-----------------7~------------|