Inside The Whale - Ser Stjerner Chords & Tabs

 

Ser Stjerner Chords & Tabs

Inside The Whale Chords & Tabs

Version: 1 Type: Tab 0 ratings
1 star 2 stars 3 stars 4 stars 5 stars
comments

Ser Stjerner Tab

   
-----------------------------------------
Band  : Inside The Whale
Sang  : Ser Stjerner
Album : Tænk Hvis Du Gik Glip Af Noget
-----------------------------------------

Tabbet af Thomas Christensen

Riff1      (3 gange)                (1 gang)
e|---------------------------|-------------------------|
B|---------------------------|-------------------------|
G|---------------------------|-------------------------|
D|---6--6--4--4--7-7--6--6---|---9--9--9--7--6--7--6---|
A|---------------------------|-------------------------|
E|---------------------------|-------------------------|


Omkvædet / Mellemspil (Riff2)
e|-------------------------------------------
B|----------------12-12-12--10-10-10--9-9-9--
G|--8-8-8--9-9-9-----------------------------
D|-------------------------------------------
A|-------------------------------------------
E|-------------------------------------------

----------------------------------------|
----------------12-12-12--10-10-10--9^--|
--8-8-8--9-9-9--------------------------|
----------------------------------------|
----------------------------------------|
----------------------------------------|

Intro : Gentag Riff1, 2 gange.

[ Tab from: http://www.guitartabs.cc/tabs/i/inside_the_whale/ser_stjerner_tab.html ]
Vers
A
Spøgelser i en metropol
C#m            F#
sat i kredsløb om en midnatssol
    A
Jeg spiddet på min barstol nu igen.


Vers

Lysglimt, stemmer og musik
fyger om min lilla, gul og pink
Hvad kom du i min drink.


Omkvæd (Riff2)
(E) 
Jeg er ved at flippe ud
(B)
jeg ser stjerner nu
(D)                  A
men hvorfor tænke på det
                   C
ligeså længe du er her
B
svimlende og nær.


Vers

Svæver som en glas-ballon
jeg er højere, højere end Rundetårn
jeg løber i mit musehjul så...


OmkvæD

Kan du følge mig ud
jeg ser stjerner nu                  
men hvorfor tænke på det                      
ligeså længe du er her.


Mellemspil
   B           (Spilles er par gange, skift så til Riff2)
e|------------------------|
B|--------------7---------|
G|--------8--------8------|
D|-----9-----9--------9---|
A|--9---------------------|
E|------------------------|


OmkvæD

Hvorfor tænke på det ligeså
længe jeg er her
ved at flippe ud
jeg ser stjerner nu og
tankerne bliver væk
det går nedad temmelig stærkt
Det svimler nu og væk.


---------------------------------------------------------------
Husk at ovenstående tabulatur og becifringer kun er vejledende,
så der kan være fejl og unøjagtigheder.

Comments