Inside The Whale - Hvor Er Tiden Der Tager Os Chords & Tabs

 

Hvor Er Tiden Der Tager Os Chords & Tabs

Inside The Whale Chords & Tabs

Version: 1 Type: Tab 0 ratings
1 star 2 stars 3 stars 4 stars 5 stars
comments

Hvor Er Tiden Der Tager Os Tab

   
---------------------------------
Band : Inside The Whale
Album : Rebeller Uden Sag
Sang : Hvor er tiden der ta'r os
---------------------------------

Tabbet af Thomas Christensen


Intro - Gentages et par gange.

|--------0------------------0---------|
|----------0/2----------------0/2-----|
|------2-------2---2------2-------2---|
|----2-----------2------2-------------|
|--0------------------0---------------|
|-------------------------------------|


A stykke : (verse)
[ Tab from: http://www.guitartabs.cc/tabs/i/inside_the_whale/hvor_er_tiden_der_tager_os_tab.html ]
|A|A7|D|Dm| - Spilles 2 gange.


B stykke : (omkvæD)

|A|D|A|D|A|C#m|F#m|D|Dm|


C stykke :

|G|D|G|D|A5|

----------------

A5 - x02230

----------------

Jeg har ikke sangen selv så jeg har aflyttet den uden musik, men hvis 
du finder nogen fejl så må du gerne sende en mail.
 
Comments