Insane Clown Posse - Hall Of Illusions Chords & Tabs

 

Hall Of Illusions Chords & Tabs

Insane Clown Posse Chords & Tabs

Version: 1 Type: Tab 0 ratings
1 star 2 stars 3 stars 4 stars 5 stars
comments

Hall Of Illusions Tab

Band: Insane Clown Posse
Song: Hall of Illusions
Author: AnDoW
Tuning: Dadgbe

Key: 
|---| one bar
\ Downslide (from somewhere high on the fretboard)
/ Slide up to...
**** slide/scratch plectrum down string (creates a tearing sound)

OK, this song's actually a really good one for metal covers.  
It says one in some parts to use the wah wah, but there may 
be other zoning effects and chorus and stuff used as well to get 
the effect.  You're gonna have to play around if you want to get 
it all right.  The order is down at the bottom two.  Also in the
 order it has "Verse x 8 (8 bars)  &  Backverse x 4 (8 bars)" 
meaning you play them both at the same time.  You're gonna either 
need 2 guitars, or cool effects on your bass, just play them in 
the wrong octave. Hmm...there's not a whole lot've ICP guitar tabs
 around...sucks.

Intro
---|---|---|---
-8-|-7-|-5-|-3-
-8-|-7-|-5-|-3-
-6-|-5-|-3-|-1-
---|---|---|---
---|---|---|--- w/wah wah

Verse
-5/8-5/7-------
-5/8-5/7-------
-3/6-3/5-------
---------------
---------------
--------------- w/wah wah
[ Tab from: http://www.guitartabs.cc/tabs/i/insane_clown_posse/hall_of_illusions_tab.html ]
Backverse
-------------------------
-------------------------
-------------------------
-------------------------
-------------------------
-0---6-5-3-0---6-5-3-6-0- w/cry, distortion


Prechorus
---------|---------|---------|---------
-9-9-9-9-|-8-8-8-8-|-7-7-7-7-|-6-6-6-6-
---------|---------|---------|---------
---------|---------|---------|---------
---------|---------|---------|---------
---------|---------|---------|---------
Chorus
-------------------------------------------
-------------------------------------------
-------------------------------------------
\-0---6-5-3-0---6-5-3-6-0------------------
\-0---6-5-3-0---6-5-3-6-0------------------
\-0---6-5-3-0---6-5-3-6-0- w/heavy distortion

Breakdown
--|-13-12-10-12-|--|------
--|-------------|--|------
--|-------------|--|------
--|-------------|--|------
--|-------------|--|------
--|-------------|--|-****-w/wah wah

Intro x 1 (4 bars)
Verse x 8 (8 bars)
Prechorus x 2 (8 bars)
Verse x 8 (8 bars)  &  Backverse x 4 (8 bars)
Chorus x 4 (8 bars)
Intro x 1 (4 bars)
Verse x 8 (8 bars)  &  Backverse x 4 (8 bars)
Prechorus x 2 (8 bars)
Verse x 8 (8 bars)  &  Backverse x 4 (8 bars)
Chorus x 4 (8 bars)
Breakdown x 1 (4 bars)
Chorus x 8 (16 bars)
Comments