Inquisition - Impaled By The Cryptic Horns Of Baphomet Chords & Tabs

 

Impaled By The Cryptic Horns Of Baphomet Chords & Tabs

Inquisition Chords & Tabs

Version: 1 Type: Tab 0 ratings
1 star 2 stars 3 stars 4 stars 5 stars
comments

Impaled By The Cryptic Horns Of Baphomet Tab

   
Band:  Inquisition
Album: The Magnificent Glorification of Lucifer
Song:  Impaled
Label: No Colours (2004)

Transcribed By: nyanchuk
Email:          uklearpower@hotmail.com

**everything but riff B and the last chord is tremolo picked

Tunning D G C F A D


 Riff A:                               8x
|------1-------0---------------1-----|
|------1-------0---------------1-----|
|------1-------0---------------1-----|
|--3-3---2-2-2---2-5-5-6-3-3-3---3---|
|--3-3---2-2-2---2-5-5-6-3-3-3---3---|
|--1-1---0-0-0---0-3-3-4-1-1-1---1---|


 Riff B:                                                   4x
|---------------------------------------------------------|
|---------------------------------------------------------|
|---------------------------------------------------------|
|--3---------2-----------------5-----6-3------------------|
|--3---------2-----------------5-----6-3------------------|
|--1---------0-----------------3-----4-1------------------|

play Riff A x8
play Riff B x4

[ Tab from: http://www.guitartabs.cc/tabs/i/inquisition/impaled_by_the_cryptic_horns_of_baphomet_tab.html ]
 Riff C:                              4x
|--0-------0---------------0---------|
|--0-------0-------3-------0---------|
|--0-------0-------3-------0---------|
|----2-3-2---2-3-2-3-2-3-2---2-3-2---|
|----2-3-2---2-3-2---2-3-2---2-3-2---|
|----0-1-0---0-1-0---0-1-0---0-1-0---|


 Fill:
|--------------------|
|--------------------|
|-7-7-7--------------|
|-7-7-7-3-3-3-3-3----|
|-5-5-5-3-3-3-3-3----|
|-------1-1-1-1-1----|


 Riff D:                                              x4
|--------------------0--0---|  |--------------------|
|--------------------0--0---|  |--------------------|
|--------------------0--0---|4x|--7-7-7-------------|
|--2--2--3--2--2--2---------|  |--7-7-7-3-3-3-3-3---|
|--2--2--3--2--2--2---------|  |--5-5-5-3-3-3-3-3---|
|--0--0--1--0--0--0---------|  |--------1-1-1-1-1---|


play Riff A x7

 Ending (Riff A2):
|-----1-------0--------------------|
|-----1-------0--------------------|
|-----1-------0--------------------|
|-3-3---2-2-2---2-5-----6-3--------|
|-3-3---2-2-2---2-5-----6-3--------|
|-1-1---0-0-0---0-3-----4-1--------|
Comments