Inquisition - Enshrouded By The Cryptic Temples Of The Cult Chords & Tabs

 

Enshrouded By The Cryptic Temples Of The Cult Chords & Tabs

Inquisition Chords & Tabs

Version: 1 Type: Tab 0 ratings
1 star 2 stars 3 stars 4 stars 5 stars
comments

Enshrouded By The Cryptic Temples Of The Cult Tab

   
Band:  Inquisition
Album: Invoking The Majestic Throne of Satan
Song:  Enshrouded By The Cryptic Temples of The Cult

Copyright (c)  War Hammer Records (2002)

Transcribed By: nyanchuk
Email:          uklearpower@hotmail.com

**What i have for Riff A is too technical for inquisition,
**there must be an easier way to play Riff A
**Suggestions would be appreciated
**
**In riff B, there are actually 8 13's. I put 4 for spacing reasons
**

Tunning D G C F A D



Riff A:                             x4 (fade in first 2)
|-0-------3-------3-------1--------|
|-0-------3-------x-------1--------|
|-0-------x-------55555555x--------|
|-22222222555555555555555533333333-|
|-22222222555555553333333333333333-|
|-0000000033333333--------11111111-|

play Riff A x4 with Lead A x4

Lead A:
|----------------------------------|
|-55555555888888881313131366666666-|
|----------------------------------|
|----------------------------------|
|----------------------------------|
|----------------------------------|

[ Tab from: http://www.guitartabs.cc/tabs/i/inquisition/enshrouded_by_the_cryptic_temples_of_the_cult_tab.html ]
Riff B:                                             x4
|---------------------------------------------------|
|---------------------------------------------------|
|----------------------------------------------10---|
|-52252252232252252252232252252252232252252252210---|
|-222222222322222222222322222222222322222222222-8---|
|-000000000100000000000100000000000100000000000-----|


Riff C:                           x4
|--------------------------------|
|--------------------------------|
|----000---000-------0-0-0---000-|
|--77777-55555--1010101010-55555-|
|-555555333333-8-8-8-8-8-8333333-|
|--------------------------------|

play Riff B x4
play Riff C x4


Riff D:                            x4
|----------------------------------|
|-----0-------0-------0------------|
|-----0-------0-------0-----5-9----|
|-2---2---2---2---2---2---355-9----|
|-2-------2-------2-------353-7----|
|-0-------0-------0-------13-------|

play Riff D x8

play Riff A x4 with Lead A x4
play Riff B x4
play Riff C x4


Riff E:                            x4
|----------------------------------|
|----------------------------------|
|----------------------------------|
|-66336633663366226633663366336622-|
|-66336633663366226633663366336622-|
|-44114411441144004411441144114400-|
Comments