Inquisition - Dark Mutilation Rites Chords & Tabs

 

Dark Mutilation Rites Chords & Tabs

Inquisition Chords & Tabs

Version: 1 Type: Tab 0 ratings
1 star 2 stars 3 stars 4 stars 5 stars
comments

Dark Mutilation Rites Tab

   
Band:  Inquisition
Album: MAGNIFICENT GLORIFICATION OF LUCIFER
Song: Dark Mutilation Rites

Copyright (c) No Colours (2004)

Transcribed By: nyanchuk
Email:          uklearpower@hotmail.com



Tunning D G C F A D

Riff A:                             x4
|----------------------------------|
|----------------------------------|
|----------------------------------|
|-2-2-2-2-2-2-2-2-2-2-2-2-2-3-3-3--|
|-2-2-2-2-2-2-2-2-2-2-2-2-2-3-1-3--|
|-0-0-0-0-0-0-0-0-0-0-0-0-0-1-1-1--|

play Riff A x4

Riff B:                             x4
|----------------------------------|
|----------------------------------|
|---------------------------8------|
|-2-2-2-2-2-2-2-2-2-2-2-2-2-8-8-3--|
|-2-2-2-2-2-2-2-2-2-2-2-2-2-6-8-3--|
|-0-0-0-0-0-0-0-0-0-0-0-0-0---6-1--|

play Riff A x4
play Riff B x4
[ Tab from: http://www.guitartabs.cc/tabs/i/inquisition/dark_mutilation_rites_tab.html ]
Riff C:                                                             x4
|------------------------------------------------------------------|
|------------------------------------------------------------------|
|------------------------------------------------------------------|
|-2-3-2-2-2-3-2-2-2-3-2-2-5-5-2-2-2-3-2-2-2-3-2-2-2-3-2-2-3-3-2-2--|
|-2-3-2-2-2-3-2-2-2-3-2-2-3-5-2-2-2-3-2-2-2-3-2-2-2-3-2-2-1-3-2-2--|
|-0-1-0-0-0-1-0-0-0-1-0-0-3-3-0-0-0-1-0-0-0-1-0-0-0-1-0-0-1-1-0-0--|

Riff D:
|------------------------------------------------------------------
|------------------------------------------------------------------
|---------------------------------------------------------5---5~---
|-2-2-2-2-2-2-2-2-2-2-2-2-2-2-2-2-2-2-2-2-2-2-2-2-2-2-2-2-3---5~---
|-0-2-2-2-0-2-2-2-0-2-2-2-0-2-2-2-0-2-2-2-0-2-2-2-0-2-2-2-3---3~---
|-0-0-0-0-0-0-0-0-0-0-0-0-0-0-0-0-0-0-0-0-0-0-0-0-0-0-0-0----------
                                                                    x2
 ------------------------------------------------------------------|
 ------------------------------------------------------------------|
 ---------------------------------------------------------5h7-7~---|
 -2-2-2-2-2-2-2-2-2-2-2-2-2-2-2-2-2-2-2-2-2-2-2-2-2-2-2-2-5h5-5~---|
 -0-2-2-2-0-2-2-2-0-2-2-2-0-2-2-2-0-2-2-2-0-2-2-2-0-2-2-2----------|
 -0-0-0-0-0-0-0-0-0-0-0-0-0-0-0-0-0-0-0-0-0-0-0-0-0-0-0-0----------|

play Riff C x4
play Riff D x2

play Riff A x4
play Riff B x4
play Riff B x8

End on:
|------------------
|------------------
|------------------
|-2----------------
|-2-(let ring)-----
|-0----------------
Comments