Innocent Blood - Den F Rste Gang Chords & Tabs

 

Den F Rste Gang Chords & Tabs

Innocent Blood Chords & Tabs

Version: 1 Type: Tab 0 ratings
1 star 2 stars 3 stars 4 stars 5 stars
comments

Den F Rste Gang Tab

   
--------------------------------------
Band  : Innocent Blood
Album :	Kærlighed Ved Første Hik
Sang  : Den Første Gang
--------------------------------------

Tabbet af Thomas Christensen

Den allerførste gang 

© Innocent Blood 1999

intro fingerspil
|D|Dsus2|Dsus2|D|
|D|Dsus2|Dsus2|D|

vers
|D|E|G|hm A|
|D|E|G|hm A|

bro
|G|A|D|hm|G|G|Asus4 A|

omk
|D|D|f#m|f#m|G|G|gm|gm|
|D|D|f#m|f#m|G|G|gm|gm|

mellemspil
|D|E|G|hm A|

break efter 2. omk
|D|Dsus2|Dsus2|D|
|D/f#|Dsus2/G|Dsus2/g#|D/a|




	


Intro : (2 gange)

e|---2-----2-----2----0-----0-----0----0-----0-----0----2-----2-----2-----|
B|-----3-----3-----3----3-----3-----3----3-----3-----3----3-----3-----3---|
G|-------2-----2----------0-----0----------2-----2----------2-----2-------|
D|------------------------------------------------------------------------|
A|------------------------------------------------------------------------|
E|------------------------------------------------------------------------|


Verse 1

D          E
Jeg husker tydeligt dengang 
G          Bm      A      D
jeg så dig for den første gang
D          E
Det var en sommeraften 
G         Bm  A
for længe siden
D           E        
Jeg kikked' længe på dig
G         Bm        A     D     
mens du dansede til vores sang
D           E
Jeg var som forstenet
G     Bm       A        D
da du pludslig stod hos mig


Pre-Chorus :

D          A
Alting var som en drøm
D            Bm
man ikke vil vågne fra
G                              A
men virkligheden rammer som et lyn


OmkvæD/Chorus :

                D
Den allerførste gang
               f#m
De allerførste ord
                G
Den allerførste sang
                A#
Den sætter dybe spor
                D
Det allerførste kys
                  f#m
De uforglemmelige kys
                      G
Mens mørket det faldt på
                  A#
Gik alt omkring i stå


Verse 2 :
[ Tab from: http://www.guitartabs.cc/tabs/i/innocent_blood/den_f_rste_gang_tab.html ]
D        E
Da lyset ramte dig
G       Bm    A      D
tidligt næste morgen
D          E
Da var jeg sikker på
G          Bm  A     
at det var sandt
D            E
Jeg listed' ud af sengen
G       Bm    A   D
uden at vække dig
D            E
Jeg lagde et brev på bordet
G      Bm     A         D
mon du stadig tænker på mig



Pre-Chorus :

D          A
Alting var som en drøm
D            Bm
man ikke vil vågne fra
G                              A
men virkligheden rammer som et lyn


OmkvæD :

Den allerførste gang......

________________________________________________________________________

--------------------------------------
Band  : Innocent Blood
Album :	Kærlighed Ved Første Hik
Sang  : Den Første Gang
--------------------------------------

Tabbet af Stig Nielsen
	


Intro : (2 gange)

e|---2-----2-----2----0-----0-----0----0-----0-----0-----2-----2-----2|
B|-----3-----3-----3----3-----3-----3----0-----0-----0-----3-----3----|
G|-------2-----2----------2-----2----------1-----1-----------2-----2--|
D|--------------------------------------------------------------------|
A|--------------------------------------------------------------------|
E|--------------------------------------------------------------------| 



A skal spilles som

0-0-2-2-0-0



Verse 1

D          E
Jeg husker tydeligt dengang 
G          Bm      A      D
jeg så dig for den første gang
D          E
Det var en sommeraften 
G         Bm  A
for længe siden
D           E        
Jeg kikked' længe på dig
G         Bm        A     D     
mens du dansede til vores sang
D           E
Jeg var som forstenet
G     Bm       A        G
da du pludslig stod hos mig


Pre-Chorus :

G           A
Alting var som en drøm
Bm             A
man ikke vil vågne fra
G                              A
men virkligheden rammer som et lyn


OmkvæD/Chorus :

                D
Den allerførste gang
               D/f#
De allerførste ord
                G
Den allerførste sang
                G/Bb
Den sætter dybe spor
                D
Det allerførste kys
                 D/f#
De uforglemmelige kys
                      G
Mens mørket det faldt på
                  G/Bb
Gik alt omkring i stå


Verse 2 :
D  E  G  Bm  A  D 



D        E
Da lyset ramte dig
G       Bm    A      D
tidligt næste morgen
D          E
Da var jeg sikker på
G          Bm  A     
at det var sandt
D            E
Jeg listed' ud af sengen
G       Bm    A   D
uden at vække dig
D            E
Jeg lagde et brev på bordet
G      Bm     A         G
mon du stadig tænker på mig



Pre-Chorus :

G          A
Alting var som en drøm
Bm             A
man ikke vil vågne fra
G                              A
men virkligheden rammer som et lyn


OmkvæD :

Den allerførste gang......

Comments