Inner Voices - Baby Girl Chords & Tabs

 

Baby Girl Chords & Tabs

Inner Voices Chords & Tabs

Version: 1 Type: Tab 1 rating
1 star 2 stars 3 stars 4 stars 5 stars
comments

Baby Girl Tab

Inner Voices - Baby Girl
Tabbed by:  Peter Liamsithisack
Standard Tuning: (EADGBE)

Intro/Verse/Chorus:
E----------0-------------0-------------0-------------0----------
B---------------------------------------------------------------
G--------2---2---------2---2---------2---2---------2---2--------		(Repeat 2x)
D------2-------2-----2-------2-----2-------2-----2---2---2------		
A----0-----------0----------------------------------------------
E------------------4-----------4-2-----------2-0-----------0----
[ Tab from: http://www.guitartabs.cc/tabs/i/inner_voices/baby_girl_tab.html ]
Prechorus:
E----------0-------------------------0-------0---------0------------
B--------3---3---------0-------0---2-------0---------3-3-0/2-0------
G------2-------2-----4---4-1-2---2-----2-1-----1---2-----------2----
D----0-----------0-2-----------------------------4------------------
A-------------------------------------------------------------------
E-------------------------------------------------------------------

E----------0-------------0-------0--------------0----------
B--------3-------------0-0---------0----------2---2--------
G------2------2------4---------2-----2------2-------2------
D----0-----------0-2---------2----------2-0-----------0----
A--------------------------0-------------------------------
E----------------------------------------------------------
Comments