Inme - Underdose Chords & Tabs

 

Underdose Chords & Tabs

Inme Chords & Tabs

Version: 5 Type: Tab 0 ratings
1 star 2 stars 3 stars 4 stars 5 stars
comments

Underdose Tab

Tabbed by: Matt
E-mail: Matthew_Norton

Underdose
Inme
Dave Mcpherson

Intro
e|-------------------------------------------------------------------------|
B|-------------------------------------------------------------------------|
G|-------------------------------------------------------------------------|
D|-------------------------------------------------------------------------|
A|-------------------------------------------------------------------------|
D|--14p0-0-0-14p0-0-0-14p0-14p0-12p0-0-0-12p0-0-0-12-----------------------|

e|-------------------------------------------------------------------------|
B|-------------------------------------------------------------------------|
G|-------------------------------------------------------------------------|
D|-------------------------------------------------------------------------|
A|--14p0-0-0-14p0-0-0-14p0-14p0-12p0-0-0-13p0-0-0-12p0-12p0----------------|
D|--14p0-0-0-14p0-0-0-14p0-14p0-12p0-0-0-13p0-0-0-12p0-12p0----------------|

e|-------------------------------------------------------------------------|
B|-------------------------------------------------------------------------|
G|-------------------------------------------------------------------------|
D|------------------------------777-555-444-11-111-------------------------|
A|--11p0-0-0-11p0-0-0-11p0-11p0-777-555-444-11-111-------------------------|
D|--11p0-0-0-11p0-0-0-11p0-11p0-777-555-444-11-111-------------------------|
                                                                         X2
Verse
e|-------------------------------------------------------------------------|
B|-------------------------------------------------------------------------|
G|-------------------------------------------------------------------------|
D|-------------------------------------------------------------------------|
A|-------------------------------------------------------------------------|
D|--14p0-------14p0-------12p0-------14p0-0-0-14p0-0-0-14p0----------------|
Pm                                      x x x    x x x
e|-------------------------------------------------------------------------|
B|-------------------------------------------------------------------------|
G|-------------------------------------------------------------------------|
D|-------------------------------------------------------------------------|
A|-------------------------------------------------------------------------|
D|--14p0-------14p0-------12p0-------14p0-0-0-14p0-0-0-14/15---------------|
Pm                                      x x x    x x x
Chorus
e|-------------------------------------------------------------------------|
B|-------------------------------------------------------------------------|
G|-------------------------------------------------------------------------|
D|--88888888-1010101010101010----------------------------------------------|
A|--88888888-1010101010101010----------------------9-----------------------|
D|--88888888-1010101010101010-0-012-00-00-00-00-0-0--00-00-00-00-----------|
                                                                          X2
[ Tab from: http://www.guitartabs.cc/tabs/i/inme/underdose_tab_ver_5.html ]
Verse
e|-------------------------------------------------------------------------|
B|-------------------------------------------------------------------------|
G|-------------------------------------------------------------------------|
D|-------------------------------------------------------------------------|
A|-------------------------------------------------------------------------|
D|--14p0-------14p0-------12p0-------14p0-0-0-14p0-0-0-14p0----------------|
Pm                                      x x x    x x x
e|-------------------------------------------------------------------------|
B|-------------------------------------------------------------------------|
G|-------------------------------------------------------------------------|
D|-------------------------------------------------------------------------|
A|-------------------------------------------------------------------------|
D|--14p0-------14p0-------12p0-------14p0-0-0-14p0-0-0-14/15---------------|
Pm                                      x x x    x x x
Chorus
e|-------------------------------------------------------------------------|
B|-------------------------------------------------------------------------|
G|-------------------------------------------------------------------------|
D|--88888888-1010101010101010----------------------------------------------|
A|--88888888-1010101010101010----------------------9-----------------------|
D|--88888888-1010101010101010-0-012-00-00-00-00-0-0--00-00-00-00-----------|
                                                                          X2
e|-------------------------------------------------------------------------|
B|-------------------------------------------------------------------------|
G|-------------------------------------------------------------------------|
D|------------------------------777-555-444-1-12////////-------------------|
A|------------------------------777-555-444-1-12////////-------------------|
D|--14p0-0-0-14p0-0-0-14p0-14p0-777-555-444-1-12////////-------------------|

Interlude
e|-------------------------------------------------------------------------|
B|-------------------------------------------------------------------------|
G|-------------------------------------------------------------------------|
D|--9-9-129-9-9-129-9-9-129-9-9--------------------------------------------|
A|--9-9-129-9-9-129-9-9-129-9-9--------------------------------------------|
D|--9-9-129-9-9-129-9-9-129-9-9--------------------------------------------|
pm  x x x x x x x x x x x x x x
e|-------------------------------------------------------------------------|
B|-----------7-------------------------------------------------------------|
G|------7---------7--------------------------------------------------------|
D|--4755-5555-5555-5555----------------------------------------------------|
A|--4755-5555-5555-5555----------------------------------------------------|
D|--4755-5555-5555-5555----------------------------------------------------|

e|-------------------------------------------------------------------------|
B|------------------------------7------------------------------------------|
G|-------------------------7---------7-------------------------------------|
D|--71099999999999999-47555-5555-5555-5555---------------------------------|
A|--71099999999999999-47555-5555-5555-5555---------------------------------|
D|--71099999999999999-47555-5555-5555-5555---------------------------------|
                                                                          X2
e|-------------------------------------------------------------------------|
B|------------------------------7------------------------------------------|
G|-------------------------7-----------------------------------------------|
D|--71099999999999999-47555-5555-------------------------------------------|
A|--71099999999999999-47555-5555-------------------------------------------|
D|--71099999999999999-47555-5555---14p0-0-0-14p0-0-0-14--------------------|

Chorus
e|-------------------------------------------------------------------------|
B|-------------------------------------------------------------------------|
G|-------------------------------------------------------------------------|
D|--88888888-1010101010101010----------------------------------------------|
A|--88888888-1010101010101010----------------------9-----------------------|
D|--88888888-1010101010101010-0-012-00-00-00-00-0-0--00-00-00-00-----------|
                                                                         X3
e|-------------------------------------------------------------------------|
B|-------------------------------------------------------------------------|
G|-------------------------------------------------------------------------|
D|--88888888-1010101010101010-0xx0xx0xx0xx1xx1xx1xx1-----------------------|
A|--88888888-1010101010101010-0xx0xx0xx0xx1xx1xx1xx1-----------------------|
D|--88888888-1010101010101010-0xx0xx0xx0xx1xx1xx1xx1///14p0----------------|

And i think that covers it about. Live, Dave puts a couple on hammer-ons on the quiet 
just before the bridge.

Feel free to e-mail with corrections and if you want it i've got a live video of Neptune 
underdose from 2003 if anyone wants it so add me on msn! :)

(Btw check out my other Inme tab Just a Glimpse, i was the first to put a proper tab 
that on this site (Yay))
Comments