Inme - Underdose Chords & Tabs

 

Underdose Chords & Tabs

Inme Chords & Tabs

Version: 1 Type: Tab 0 ratings
1 star 2 stars 3 stars 4 stars 5 stars
comments

Underdose Tab

   
Tabbed by marcus lubbock 
InMe underdose
email marcus4king@fsmail.net

Intro:

E|--------------------------------------------------
B|--------------------------------------------------
G|--------------------------------------------------
D|-------------------------------------------------- 
A|--------------------------------------------------
D|-14-0-0-0-14-0-0-0-14-0-14-0-12-0-0-0-12-0-0-0-12-

|--------------------------------------------------
|--------------------------------------------------
|--------------------------------------------------
|--------------------------------------------------
|-14-0-0-0-14-0-0-0-14-0-14-0-12-0-0-0-12-0-0-0-12-
|-14-0-0-0-14-0-0-0-14-0-14-0-12-0-0-0-12-0-0-0-12-


|-----------------------------------------------------
|-----------------------------------------------------
|-----------------------------------------------------
|----------------------------------------------------- 
|-11-0-0-0-11-0-0-0-11-0-11-0-777-555-444-13-13-13-13-
|-11-0-0-0-11-0-0-0-11-0-11-0-777-555-444-13-13-13-13-

Verse:

|----------------------------------------------
|----------------------------------------------
|----------------------------------------------
|----------------------------------------------
|-14-0--14-0--12-0--14-0-0-0-14-0-0-0-14-0-----
|-14-0--14-0--12-0--14-0-0-0-14-0-0-0-14-0-----

|----------------------------------------------
|----------------------------------------------
|----------------------------------------------
|----------------------------------------------
|-14-0--14-0--12-0--14-0-0-0-14-0-0-0-14-15----
|-14-0--14-0--12-0--14-0-0-0-14-0-0-0-14-15----


Chorus:

|--------------------------------------------------
|--------------------------------------------------
|------------7------11-----------------------------
|-8--10--12--x--12--x--12-------------------------- x2.
|-8--10--12--5--12--9--12--------------------------
|-8--10--12-----12-----12--------------------------


Interlude (after 2nd chorus):
[ Tab from: http://www.guitartabs.cc/tabs/i/inme/underdose_tab.html ]
|------------------------------------------------------
|------------------------------------------------------
|------------------------------------------------------
|------------------------------------------------------
|-14-0-0-0-14-0-0-0-14-0-14-0--777-555-444-13-13-------
|-14-0-0-0-14-0-0-0-14-0-14-0--777-555-444-13-13-------


|--------------------------------------------------
|--------------------------------------------------
|--------------------------------------------------
|--------------------------------------------------
|-14-0-0-0-14-0-0-0-14-0-14-0-12-0-0-0-12-0-0-0-12-
|-14-0-0-0-14-0-0-0-14-0-14-0-12-0-0-0-12-0-0-0-12-


|-----------------------------------------------------
|-----------------------------------------------------
|-----------------------------------------------------
|----------------------------------------------------- 
|-11-0-0-0-11-0-0-0-11-0-11-0-777-555-444-13-7-10-----
|-11-0-0-0-11-0-0-0-11-0-11-0-777-555-444-13-7-10-----


|-------------------------------
|-------------------------------
|-------------------------------
|-------------------------------
|-0-0-9-0-0-0-9-0-0-0-0-9-0-0-0-
|-0-0-9-0-0-0-9-0-0-0-0-9-0-0-0-

|-----------------------------------------------------
|-----------------------------------------------------
|--------7-----11---7---------------------------------
|--------x-----x----x--------------------------------- 
|-4-7-55-5-555-9-55-5-555--7-10-9999999999999999------
|-4-7-55---555---55---555--7-10-9999999999999999------


Bit before last chorus:

|----------------------
|----------------------
|----------------------
|----------------------
|-14-0-0-0-14-0-0-0-14-
|-14-0-0-0-14-0-0-0-14-

Final Chorus 2nd guitar:

|--------------------------
|--------------------------
|-15-14-12-10-12-10-9-5-7--
|-x--x--x--x--x--x--x-x-x--
|-13-12-10-8--10-8--7-3-5--
|--------------------------



Outro:

|--------------------------------------------------------------
|--------------------------------------------------------------
|--------------------------------------------------------------
|--------------------------------------------------------------
|-12-0-0-12-0-0-12-0-0-12-0-0-13-0-0-13-0-0-13-0-0-13-0-0-14-0-
|-12-0-0-12-0-0-12-0-0-12-0-0-13-0-0-13-0-0-13-0-0-13-0-0-14-0- 
Comments