Inme - Underdose Chords & Tabs

 

Underdose Chords & Tabs

Inme Chords & Tabs

Version: 1 Type: Bass Tab 0 ratings
1 star 2 stars 3 stars 4 stars 5 stars
comments

Underdose Bass Tab

   
pretty easy to figure out where everything goes, awesome song by an
extremely talented band, expect great stuff from their new album out soon :D

Intro: x2 
G|-------------------------------------------------------------------------|
D|-------------------------------------------------------------------------|
A|-------------------------------------------------------------------------|
D|-14-12-12-12-14-12-12-12-14-12-14-12-12-14-12-12-12-14-12-12-14-12-14-12-|

G|-------------------------------------------------------------|
D|-------------------------------------------------------------|
A|-------------------------------------------------------------|
D|-11-12-12-12-11-12-12-12-11-12-11-12-777-555-444-13-13-13-13-|

Verse: x8
G|-------------------------------------|
D|-------------------------------------|
A|-------------------------------------|
D|-14-12-12-12-14-12-12-12-14-12-14-12-|

Chorus: x2
G|------------------------------------------------------------------------|
D|------------------------------------------------------------------------|
A|-------------------------------------12---------------------------------|
D|8888-10-10-10-10-10-11-14-12-12-14-12-12-12-14-12-14-12-12-14-14-12-12--|

Verse x8
Chorus x2
[ Tab from: http://www.guitartabs.cc/tabs/i/inme/underdose_btab.html ]
Interlude: Come in after Guitar
G|------------------------------------------|
D|------------------------------------------|
A|------------------------------------------|
D|-----------------------777-555-444-13-13/-|

G|-------------------------------------------------------------------------|
D|-------------------------------------------------------------------------|
A|-------------------------------------------------------------------------|
D|-14-12-12-12-14-12-12-12-14-12-14-12-12-14-12-12-12-14-12-12-14-12-14-12-|

G|-----------------------------------------------------------|
D|-----------------------------------------------------------|
A|-----------------------------------------------------------|
D|-11-12-12-12-11-12-12-12-11-12-11-12-777-555-444-13-7-10-9-|

Then: x3 Fourth time stop at the line
G|----------------|-------------------------------------------|
D|----------------|-------------------------------------------|
A|-------5-----9--|---5--------------9-----7-10----9----------|
D|-4-7-55---55555|55---555--7-10-99---999------99--999-7-10--|

Chorus x4

Outro:
G|--------------------------------------------------------------|
D|--------------------------------------------------------------|
A|--------------------------------------------------------------|
D|-12-0-0-12-0-0-12-0-0-12-0-0-13-0-0-13-0-0-13-0-0-13-0-0-14-0-|
Comments