Inme - Trenches Chords & Tabs

 

Trenches Chords & Tabs

Inme Chords & Tabs

Version: 2 Type: Tab 0 ratings
1 star 2 stars 3 stars 4 stars 5 stars
comments

Trenches Tab

This is quite easy. I'll figure the rest out later, i gotta do my exam work though now :(
[ Tab from: http://www.guitartabs.cc/tabs/i/inme/trenches_tab_ver_2.html ]
e|---------------------------------------------------------------------------|
B|--------------15------------------------------19---------------------------|
G|------14----------14------14----------18----------18------18---------------|
D|--12------12----------12----------16------16----------16-------------------|
A|---------------------------------------------------------------------------|
E|---------------------------------------------------------------------------|

e|---------------------------------------------------------------------------|
B|--------------15------------------------10---------------------------------|
G|-----14-----------14----14-------9----------9-----9------------------------|
D|--12----12-----------12-------7-----7----------7-----7---------------------|
A|---------------------------------------------------------------------------|
E|---------------------------------------------------------------------------|
Comments