Inme - Neptune Chords & Tabs

 

Neptune Chords & Tabs

Inme Chords & Tabs

Version: 1 Type: Tab 1 rating
1 star 2 stars 3 stars 4 stars 5 stars
comments

Neptune Tab

InMe 
Neptune
tabbed by raz

This song rocks i cant belive no one tabbed it beffore. i only know
to this song so i would be a big help if someone could send me the
rest. 
go easy on me this is my first tab and im only 14 so if you dont like
it i dont give a crap

^ bend
[ Tab from: http://www.guitartabs.cc/tabs/i/inme/neptune_tab.html ]
for the intro this is all you play then when the disortioncomes in
you play it twice i think then the riff below
|-----------------------------------------------------------------|
|-----------------------------------------------------------------|
|-----------------------------------------------------------------|
|-------10---9-----7h9-7-----7^-----9^----------------------------|
|---7-7----7---7-7-------7-7----7-7-7-----------------------------|
|-----------------------------------------------------------------|

|-----------------------------------------------------------------|
|-----------------------------------------------------------------|
|----------------------------7^-------9^--------------------------|
|-------10---9-----7h9-7------------------------------------------|
|---7-7----7---7-7-------7-7----7-7-7-----------------------------|
|-----------------------------------------------------------------|


lufc
Comments