Inme - Mosaic Chords & Tabs

 

Mosaic Chords & Tabs

Inme Chords & Tabs

Version: 2 Type: Tab 0 ratings
1 star 2 stars 3 stars 4 stars 5 stars
comments

Mosaic Tab

   
Tabbed by: Matt
Email: Matthew_Norton@hotmail.com

Song: Mosaic
Band: Inme
Guitarist: Dave Mcpherson
Tuning: e,B,G,D,A,D

I saw Inme live only a few months ago but i still remember exactly how Dave
played this

Intro
e|-------------------------------------------------------------------------|
B|-------------------------------------------------------------------------|
G|-------------------------------------------------------------------------|
D|---------------------------------2~~~------------------------------------|
A|---------------------------------2~~~------------------------------------|
D|--//////scratch-string////////---2~~~------------------------------------|

e|-------------------------------------------------------------------------|
B|-------------------------------------------------------------------------|
G|-------------------------------------------------------------------------|
D|-------------------------------------------------------------------------|
A|-------------------------------------------------------------------------|
D|--7-7-10-88-7-8-10--7-7-10-88-7-8-10--7-7-10-88-7-8-10--7-7-10-88-7-8-10-|
                                                                          X2

e|-------------------------------------------------------------------------|
B|-------------------------------------------------------------------------|
G|-------------------------------------------------------------------------|
D|--7-7-10-88-7-8-10--7-7-10-88-7-8-10--7-7-10-88-7-8-10--7-7-10-88-7-8-10-|
A|--7-7-10-88-7-8-10--7-7-10-88-7-8-10--7-7-10-88-7-8-10--7-7-10-88-7-8-10-|
D|--7-7-10-88-7-8-10--7-7-10-88-7-8-10--7-7-10-88-7-8-10--7-7-10-88-7-8-10-|
                                                                          X2

e|-------------------------------------------------------------------------|
B|-------------------------------------------------------------------------|
G|--77-777-----------------------------------------------------------------|
D|--77-777-88-8108-7-7-10-88-7-8-10--7-7-10-88-7-8-10----------------------|
A|--55-555-88-8108-7-7-10-88-7-8-10--7-7-10-88-7-8-10----------------------|
D|--00-000-88-8108-7-7-10-88-7-8-10--7-7-10-88-7-8-10----------------------|
                                                                         X2

Verse bass only
e|-------------------------------------------------------------------------|
B|-------------------------------------------------------------------------|
G|-------------------------------------------------------------------------|
D|-----------------------------------------------------------------8-8-----|
A|-----------------------------------------------------------------8-8-----|
D|-----------------------------------------------------------------8-8-----|

Chorus
e|-------------------------------------------------------------------------|
B|-------------------------------------------------------------------------|
G|--77-777-----------------------------------------------------------------|
D|--77-777-88-8108-7-7-10-88-7-8-10--7-7-10-88-7-8-10----------------------|
A|--55-555-88-8108-7-7-10-88-7-8-10--7-7-10-88-7-8-10----------------------|
D|--00-000-88-8108-7-7-10-88-7-8-10--7-7-10-88-7-8-10----------------------|
                                                                         X4

Verse 2 (Phaser effect)
e|-------------------------------------------------------------------------|
B|-------------------------------------------------------------------------|
G|--9~~~~~~----8~~-9~~~~~~~~~----------------------------------------------|
D|-------------------------------------------------------------------------|
A|-------------------------------------------------------------------------|
D|-------------------------------------------------------------------------|
[ Tab from: http://www.guitartabs.cc/tabs/i/inme/mosaic_tab_ver_2.html ]
Chorus
e|-------------------------------------------------------------------------|
B|-------------------------------------------------------------------------|
G|--77-777-----------------------------------------------------------------|
D|--77-777-88-8108-7-7-10-88-7-8-10--7-7-10-88-7-8-10----------------------|
A|--55-555-88-8108-7-7-10-88-7-8-10--7-7-10-88-7-8-10----------------------|
D|--00-000-88-8108-7-7-10-88-7-8-10--7-7-10-88-7-8-10----------------------|
                                                                         X4

Bridge
e|----------------------------------11~~~----------------------------------|
B|----------------------------------11~~~----------------------------------|
G|-------------------------------------------------------------------------|
D|--5-7---5-7---5-7---5-7-8-8-8-5-7------5557-5557-5-5-7-8-8-8-------------|
A|--5-7---5-7---5-7---5-7-8-8-8-5-7------5557-5557-5-5-7-8-8-8-------------|
D|--5-7---5-7---5-7---5-7-8-8-8-5-7------5557-5557-5-5-7-8-8-8-------------|
Pm  x x   x x   x x   x x x x x x x      xxxx xxxx x x x x x x

e|-------------------------------------------------------------------------|
B|-------------------------------------------------------------------------|
G|-------------------------------------------------------------------------|
D|--0--(5)--------0--(5)---------0--(5)---------8-8888-8-8-10--------------|
A|--0----(5)--(4)-0----(5)---(4)-0----(5)---(4)-8-8888-8-8-10--------------|
D|--0-------(4)---0--------(4)---0--------(4)---8-8888-8-8-10--------------|
Pm                                                xxxx                    X4
On the last time leave out the palm mute part so all you can hear
is the drums

e|-------------------------------------------------------------------------|
B|-------------------------------------------------------------------------|
G|-------------------------------------------------------------------------|
D|-------------------------------------------------------------------------|
A|-------------------------------------------------------------------------|
D|--7-7-10-88-7-8-10--7-7-10-88-7-8-10--7-7-10-88-7-8-10--7-7-10-88-7-8-10-|
                                                                          X2
e|-------------------------------------------------------------------------|
B|-------------------------------------------------------------------------|
G|-------------------------------------------------------------------------|
D|--7-7-10-88-7-8-10--7-7-10-88-7-8-10--7-7-10-88-7-8-10--7-7-10-88-7-8-10-|
A|--7-7-10-88-7-8-10--7-7-10-88-7-8-10--7-7-10-88-7-8-10--7-7-10-88-7-8-10-|
D|--7-7-10-88-7-8-10--7-7-10-88-7-8-10--7-7-10-88-7-8-10--7-7-10-88-7-8-10-|
                                                                          X2
Chorus
e|-------------------------------------------------------------------------|
B|-------------------------------------------------------------------------|
G|--77-777-----------------------------------------------------------------|
D|--77-777-88-8108-7-7-10-88-7-8-10--7-7-10-88-7-8-10----------------------|
A|--55-555-88-8108-7-7-10-88-7-8-10--7-7-10-88-7-8-10----------------------|
D|--00-000-88-8108-7-7-10-88-7-8-10--7-7-10-88-7-8-10----------------------|
                                                                         X4

e|-------------------------------------------------------------------------|
B|-------------------------------------------------------------------------|
G|-------------------------------------------------------------------------|
D|--0--(5)--------0--------------------------------------------------------|
A|--0----(5)--(4)-0--------------------------------------------------------|
D|--0-------(4)---0--------------------------------------------------------|

Thats pretty much right
Check out my other tabs (Just a glimpse and Underdose)

Email with corrections or anything
Comments