Inme - Mosaic Live Chords & Tabs

 

Mosaic Live Chords & Tabs

Inme Chords & Tabs

Version: 1 Type: Bass Tab

Mosaic Live Bass Tab

   
Intro x8
G|------------------|
D|------------------|
A|-00-3-0-1-000-1-3-|
D|------------------|
[ Tab from: http://www.guitartabs.cc/tabs/i/inme/mosaic_live_btab.html ]
Chorus / Second Intro
G|---------7-5---------------------------------------------------------------|
D|-------------7-------------------------------------------------------------|
A|-5-5-5--------------1-1-1-3-2-1--0-0-3-0-1-0-0-0-1-3-0-0-3-0-1-0-0-0-1-3---|
D|---------------------------------------------------------------------------|
Verse x2
G|----------------------------------------------------------7---5-|
D|------7---6-----------7---6-----------7---6----------7----------|
A|---------------------------------------------------------5----3-|
D|-55-7---6---5-7--55-7---6---5-7--55-7---6---57--55-7------------|

Then Play:-

Chorus x4
Verse x2
Chorus x4

Bridge Play each One as needed
G|------------------------------------|
D|------------------------------------|
A|------------------------------------|
D|-5-7------5-7-----5-7-----5-7-8-8-8-|

G|-----------------------------------|
D|-----------------------------------|
A|-5-5-----5-5-----5-5-----3-5-6-6-6-|
D|-----------------------------------|

G|-----7---7---7---7---7---7--------|
D|------7---7---7---7---7-----------|
A|-5-5---55--55--55--55--55-5-6-6-6-|
D|----------------------------------|

Then Play:-
Intro -x8
Chorus x4