Inme - Miracle Chords & Tabs

 

Miracle Chords & Tabs

Inme Chords & Tabs

Version: 1 Type: Tab 0 ratings
1 star 2 stars 3 stars 4 stars 5 stars
comments

Miracle Tab

*Intro part1
e|------------------------------------------------------|
B|------------------------------------------------------|
G|------------------------------------------------------|
D|-3--3--3--1--1--1-1-----------5/6-6----------5/6-5----|
A|-3--3--3--1--1--1-1---3h4-4-4--------3h4-4-4-------6--|
D|-3--3--3--1--1--1-1-----------------------------------|

*Intro part 2
e|----------------------------------------------------------|
B|----------------------------------------------------------|
G|----------------------------------------------------------|
D|-3--3--3--1--1--1-1---------------------------------------|
A|-3--3--3--1--1--1-1---3h4-4-4--3h4-4-4--3h4-4-4--3h4-4-4--|
D|-3--3--3--1--1--1-1---------------------------------------|

The intro part 1 & 2 are used throughout the song, but played the other way round,
and sometimes starting with the hammer ons in part 2. Just listen to the song,
its very easy to work out the order, just watch for "but where now" bit, coz it all stops,
then the hammer ons kick in.

[ Tab from: http://www.guitartabs.cc/tabs/i/inme/miracle_tab.html ]
*Palm-Muted part after twinkly verse:
e|----------------------------------------------------------------------------|
B|----------------------------------------------------------------------------|
G|-----(theres 16 of each here)---------------------------(these are 1'-------|
D|-----5555555555555555-1111111111111111-5555555555555555-11-11-1---1---------|
A|-----5555555555555555-1111111111111111-5555555555555555-11-11-1-3---3-1-----|
D|-----5555555555555555-1111111111111111-5555555555555555-11-11-1---------3---|
   p.m- - - - - - - - - - - - - - - - - - - - - - - - - *

*Bridge bit - "you will never know..."

This varies between single chords that are held, to palm muted and
quickly strummed to open strummed, just listen, again, its very easy to pickup.
It's the second chord im not sure about, sounds a bit too bright to me, any suggestions
welcome
e|---------------------------|
B|---------------------------|
G|--------10-----------------|
D|--5-----10-----8-----------|
A|--5-----8------8-----------|
D|--5------------8-----------|
Comments