Inme - Lava Twighlight Chords & Tabs

 

Lava Twighlight Chords & Tabs

Inme Chords & Tabs

Version: 1 Type: Tab 0 ratings
1 star 2 stars 3 stars 4 stars 5 stars
comments

Lava Twighlight Tab

   
InMe ‘lava twighlight’  
 
Okay so this is my first tab but I’m pretty sure its correct. This is a really good fun song to play so enjoy… 

Tuning: drop D       (DADGBE) 

 
Intro:  

E   --------------------------------------|
B  --------------------------------------|
G  --------------------------------------|
D  -4-5-4-5-5*5*-4-5-4-------------|
A  -4-5-4-5-5*5*-4-5-4-------------|
D  -4-5-4-5-5*5*-4-5-4-2-3-4-5^--|

Next bit done on bass but here is how its played. 

D –4-4-4-4-4-4-4-4-4-4-5-5-5-5-5-5-0-0-0-0-7-2—

Verse: 

E ------------------------------------------------------|                   
B ------------------------------------------------------|
G--------------------------6^--------------------------|
D –-4—4—4----------------------------------------|
A-2—4—2—4—0—5 -------0—4—0-----------|
D---------------------5--------0----------------------|      
[ Tab from: http://www.guitartabs.cc/tabs/i/inme/lava_twighlight_tab.html ]
Repeat this 6 times then do this…… 
 
E----------------------------------------|
B----------------------------------------|
G----------------------------------------|
D---4---4---4-------------5 -------5---|
A-2—4---2---4—0---5----5---5---5-|
D---------------------5---------5--------| 
   4 times then…… 

D—5-5-5-5-5-5-5-5-0-0-0-0-0-0-0-0--|
A---5-5-5-5-5-5-5-5-0-0-0-0-0-0-0-0--|
D---5-5-5-5-5-5-5-5-0-0-0-0-0-0-0-0--| 
 
Chorus: 
  
D-9-9-9-9-9-9-9-9-5-5-5-0-0-0-0-0--|
A-9-9-9-9-9-9-9-9-5-5-5-0-0-0-0-0--|
D-9-9-9-9-9-9-9-9-5-5-5-0-0-0-0-0--|  
 
Solo: 
 
E-----------------------------------------------------------|
B-------------------------15-----14-----15-----14------|
G—11^--9^----------------------------------------------|
D-------------12^--11^-----12-----11-----12------11--|
A----------------------------------------------- ----------|
D----------------------------------------------------------| 
 
Repeat 4 times! 


Outro/ the part before solo. 

D—11-11-11-11-11-11-11-11-11-11-12-12-12-12-12-15-15-15-15-15--|
A—11-11-11-11-11-11-11-11-11-11-12-12-12-12-12-15-15-15-15-15--|
D—11-11-11-11-11-11-11-11-11-11-12-12-12-12-12-15-15-15-15-15--| 
 
And that’s it! You have to listen to the song to get everything rite like strumming ext and also how many times things are played but im satisfied with it! Its kept me occupied for a good hour! Contact me at: teammange@hotmail.com
   
Comments