Inme - Inside Chords & Tabs

 

Inside Chords & Tabs

Inme Chords & Tabs

Version: 1 Type: Tab 0 ratings
1 star 2 stars 3 stars 4 stars 5 stars
comments

Inside Tab

   
This is one of the b-sides on the new Faster the chase single. Im 100% certain it's 
its just a bit long!

Standard tuning
*=harmonic
x=mute note
/=slide
~=let ring
Part A
guitar one
e----------------------------------------|
b----------------------------------------|
g-9-9-9-9--------------------------------|
d-9-9-9-9--11-11-11-11--9-9-9-9-9-9-9-9--|
a-7-7-7-7--11-11-11-11--9-9-9-9-9-9-9-9--|
e-0-0-0-0--9--9--9--9---7-7-7-7-7-7-7-7--|

guitar two
e-------------------------------5*-------|
b----------------------------------4*-5*-|
g----------------------------------------|
d----------------------------------------|
a----------------------------------------|
e----------------------------------------|


e----------------------------------------|
b----------------------------------------|
g-9-9-9-9--------------------------------|
d-9-9-9-9--11-11-11-11--9-9-9-9-9-9-9-9--|
a-7-7-7-7--11-11-11-11--9-9-9-9-9-9-9-9--|
e-0-0-0-0--9--9--9--9---7-7-7-7-7-7-7-7--|


e------------------------------5*----5*--|
b---------------------------------4*-----|
g----------------------------------------|
d----------------------------------------|
a----------------------------------------|
e----------------------------------------|

played three times

Part B

e-----------------------------------------|
b-----------------------------------------|
g-9 (gradually bend up)-11----------------|(gradually bend up)
d-x-x-x-x-x-x-x-x--------x-x-x-x-x-x-x-x--|
a-7-7-7-7-7-7-7-7--------9-9-9-9-9-9-9-9--|
e-0-0-0-0-0-0-0-0-------------------------|

played twice

fill

e-5*----5*-------------------------------|
b----4*----------------------------------|
g----------------------------------------|
d----------------------------------------|
a----------------------------------------|
e----------------------------------------|

Part A again
e----------------------------------------|
b----------------------------------------|
g-9-9-9-9--------------------------------|
d-9-9-9-9--11-11-11-11--9-9-9-9-9-9-9-9--|
a-7-7-7-7--11-11-11-11--9-9-9-9-9-9-9-9--|
e-0-0-0-0--9--9--9--9---7-7-7-7-7-7-7-7--|

guitar two
e-------------------------------5*-------|
b----------------------------------4*-5*-|
g----------------------------------------|
d----------------------------------------|
a----------------------------------------|
e----------------------------------------|


e----------------------------------------|
b----------------------------------------|
g-9-9-9-9--------------------------------|
d-9-9-9-9--11-11-11-11--9-9-9-9-9-9-9-9--|
a-7-7-7-7--11-11-11-11--9-9-9-9-9-9-9-9--|
e-0-0-0-0--9--9--9--9---7-7-7-7-7-7-7-7--|


e------------------------------5*----5*--|
b---------------------------------4*-----|
g----------------------------------------|
d----------------------------------------|
a----------------------------------------|
e----------------------------------------|

played four times

Pre-Chorus

e-----------------------------------------|
b-----------------------------------------|
g-9 (gradually bend up)-11----------------|(gradually bend up)
d-x-x-x-x-x-x-x-x--------x-x-x-x-x-x-x-x--|
a-7-7-7-7-7-7-7-7--------9-9-9-9-9-9-9-9--|
e-0-0-0-0-0-0-0-0-------------------------|

e-----------------------------------------|
b-----------------------------------------|
g-9 (gradually bend up)-11----------------|(gradually bend up)
d-x-x-x-x-x-x-x-x--------x-x-x-x-x-x-x-x--|
a-7-7-7-7-7-7-7-7--------9-9-9-9-9-9-9-9--|
e-0-0-0-0-0-0-0-0-------------------------|

e-----------------------------------------|
b-----------------------------------------|
g-9 (gradually bend up)-11----------------|(gradually bend up)
d-x-x-x-x-x-x-x-x--------x-x-x-x-x-x-x----|
a-7-7-7-7-7-7-7-7--------9-9-9-9-9-9-9----|
e-0-0-0-0-0-0-0-0-------------------------|

e-0-----------------------------------------|
b-0-----------------------------------------|
g-1-----------------------------------------|
d-2-----------------------------------------|
a-2-----------------------------------------|
e-0-----------------------------------------|

chorus

e------0-0-0-0----------------------------------|
b------0-0-0-0----------------------------------|
g------1-1-1-1----------------------------------|
d------2-2-2-2--7-7-7-7-10-10-10-10-10-10-10-10-|
a------2-2-2-2--5-5-5-5-10-10-10-10-10-10-10-10-|
e-12/--0-0-0-0--5-5-5-5--8--8--8--8--8--8--8--8-|

e-0-0-0-0----------------------------------|
b-0-0-0-0----------------------------------|
g-1-1-1-1----------------------------------|
d-2-2-2-2--7-7-7-7-10-10-10-10-10-10-10-10-|
a-2-2-2-2--5-5-5-5-10-10-10-10-10-10-10-10-|
e-0-0-0-0--5-5-5-5--8--8--8--8--8--8--8--8-|

e-0-0-0-0----------------------------------|
b-0-0-0-0----------------------------------|
g-1-1-1-1----------------------------------|
d-2-2-2-2--7-7-7-7-10-10-10-10-10-10-10-10-|
a-2-2-2-2--5-5-5-5-10-10-10-10-10-10-10-10-|
e-0-0-0-0--5-5-5-5--8--8--8--8--8--8--8--8-|

e-0-0-0-0----------------------------------|
b-0-0-0-0----------------------------------|
g-1-1-1-1----------------------------------|
d-2-2-2-2--7-7-7-7-10~~~~~~----------------|
a-2-2-2-2--5-5-5-5-10~~~~~~----------------|
e-0-0-0-0--5-5-5-5--8~~~~~~----------------|

Part A
guitar one
e----------------------------------------|
b----------------------------------------|
g-9-9-9-9--------------------------------|
d-9-9-9-9--11-11-11-11--9-9-9-9-9-9-9-9--|
a-7-7-7-7--11-11-11-11--9-9-9-9-9-9-9-9--|
e-0-0-0-0--9--9--9--9---7-7-7-7-7-7-7-7--|
[ Tab from: http://www.guitartabs.cc/tabs/i/inme/inside_tab.html ]
guitar two
e-------------------------------5*-------|
b----------------------------------4*-5*-|
g----------------------------------------|
d----------------------------------------|
a----------------------------------------|
e----------------------------------------|


e----------------------------------------|
b----------------------------------------|
g-9-9-9-9--------------------------------|
d-9-9-9-9--11-11-11-11--9-9-9-9-9-9-9-9--|
a-7-7-7-7--11-11-11-11--9-9-9-9-9-9-9-9--|
e-0-0-0-0--9--9--9--9---7-7-7-7-7-7-7-7--|


e------------------------------5*----5*--|
b---------------------------------4*-----|
g----------------------------------------|
d----------------------------------------|
a----------------------------------------|
e----------------------------------------|

played twice

Pre-Chorus

e-----------------------------------------|
b-----------------------------------------|
g-9 (gradually bend up)-11----------------|(gradually bend up)
d-x-x-x-x-x-x-x-x--------x-x-x-x-x-x-x-x--|
a-7-7-7-7-7-7-7-7--------9-9-9-9-9-9-9-9--|
e-0-0-0-0-0-0-0-0-------------------------|

e-----------------------------------------|
b-----------------------------------------|
g-9 (gradually bend up)-11----------------|(gradually bend up)
d-x-x-x-x-x-x-x-x--------x-x-x-x-x-x-x-x--|
a-7-7-7-7-7-7-7-7--------9-9-9-9-9-9-9-9--|
e-0-0-0-0-0-0-0-0-------------------------|

e-----------------------------------------|
b-----------------------------------------|
g-9 (gradually bend up)-11----------------|(gradually bend up)
d-x-x-x-x-x-x-x-x--------x-x-x-x-x-x-x----|
a-7-7-7-7-7-7-7-7--------9-9-9-9-9-9-9----|
e-0-0-0-0-0-0-0-0-------------------------|

e-0-----------------------------------------|
b-0-----------------------------------------|
g-1-----------------------------------------|
d-2-----------------------------------------|
a-2-----------------------------------------|
e-0-----------------------------------------|

chorus

e------0-0-0-0----------------------------------|
b------0-0-0-0----------------------------------|
g------1-1-1-1----------------------------------|
d------2-2-2-2--7-7-7-7-10-10-10-10-10-10-10-10-|
a------2-2-2-2--5-5-5-5-10-10-10-10-10-10-10-10-|
e-12/--0-0-0-0--5-5-5-5--8--8--8--8--8--8--8--8-|

e-0-0-0-0----------------------------------|
b-0-0-0-0----------------------------------|
g-1-1-1-1----------------------------------|
d-2-2-2-2--7-7-7-7-10-10-10-10-10-10-10-10-|
a-2-2-2-2--5-5-5-5-10-10-10-10-10-10-10-10-|
e-0-0-0-0--5-5-5-5--8--8--8--8--8--8--8--8-|

e-0-0-0-0----------------------------------|
b-0-0-0-0----------------------------------|
g-1-1-1-1----------------------------------|
d-2-2-2-2--7-7-7-7-10-10-10-10-10-10-10-10-|
a-2-2-2-2--5-5-5-5-10-10-10-10-10-10-10-10-|
e-0-0-0-0--5-5-5-5--8--8--8--8--8--8--8--8-|

e-0-0-0-0----------------------------------|
b-0-0-0-0----------------------------------|
g-1-1-1-1----------------------------------|
d-2-2-2-2--7-7-7-7-10-10-10-10-10-10-10-10-|
a-2-2-2-2--5-5-5-5-10-10-10-10-10-10-10-10-|
e-0-0-0-0--5-5-5-5--8--8--8--8--8--8--8--8-|

e-0-0-0-0----------------------------------|
b-0-0-0-0----------------------------------|
g-1-1-1-1----------------------------------|
d-2-2-2-2--7-7-7-7-10-10-10-10-10-10-10-10-|
a-2-2-2-2--5-5-5-5-10-10-10-10-10-10-10-10-|
e-0-0-0-0--5-5-5-5--8--8--8--8--8--8--8--8-|

e-0-0-0-0----------------------------------|
b-0-0-0-0----------------------------------|
g-1-1-1-1----------------------------------|
d-2-2-2-2--7-7-7-7-10-10-10-10-10-10-10-10-|
a-2-2-2-2--5-5-5-5-10-10-10-10-10-10-10-10-|
e-0-0-0-0--5-5-5-5--8--8--8--8--8--8--8--8-|

e-0-0-0-0----------------------------------|
b-0-0-0-0----------------------------------|
g-1-1-1-1----------------------------------|
d-2-2-2-2--7-7-7-7-10-10-10-10-10-10-10-10-|
a-2-2-2-2--5-5-5-5-10-10-10-10-10-10-10-10-|
e-0-0-0-0--5-5-5-5--8--8--8--8--8--8--8--8-|

e-0-0-0-0----------------------------------|
b-0-0-0-0----------------------------------|
g-1-1-1-1----------------------------------|
d-2-2-2-2--7-7-7-7-10-10-10-10-10-10-10-10-|
a-2-2-2-2--5-5-5-5-10-10-10-10-10-10-10-10-|
e-0-0-0-0--5-5-5-5--8--8--8--8--8--8--8--8-|

outro

guitar one
e----------------------------------------|
b----------------------------------------|
g-9-9-9-9--------------------------------|
d-9-9-9-9--11-11-11-11--9-9-9-9-9-9-9-9--|
a-7-7-7-7--11-11-11-11--9-9-9-9-9-9-9-9--|
e-0-0-0-0--9--9--9--9---7-7-7-7-7-7-7-7--|

guitar two
e-------------------------------5*-------|
b----------------------------------4*-5*-|
g----------------------------------------|
d----------------------------------------|
a----------------------------------------|
e----------------------------------------|


e----------------------------------------|
b----------------------------------------|
g-9-9-9-9--------------------------------|
d-9-9-9-9--11-11-11-11--9-9-9-9-9-9-9-9--|
a-7-7-7-7--11-11-11-11--9-9-9-9-9-9-9-9--|
e-0-0-0-0--9--9--9--9---7-7-7-7-7-7-7-7--|


e------------------------------5*----5*--|
b---------------------------------4*-----|
g----------------------------------------|
d----------------------------------------|
a----------------------------------------|
e----------------------------------------|

e----------------------------------------|
b----------------------------------------|
g-9-9-9-9--------------------------------|
d-9-9-9-9--11-11-11-11--9-9-9-9-9-9-9-9--|
a-7-7-7-7--11-11-11-11--9-9-9-9-9-9-9-9--|
e-0-0-0-0--9--9--9--9---7-7-7-7-7-7-7-7--|

e-----------------------5*----7*---------|
b--------------------------4*----7*------|
g----------------------------------------|
d----------------------------------------|
a----------------------------------------|
e----------------------------------------|

there you go, another great inme song, cant wait for the new album!!!
Comments