Inme - Ice Warm Chords & Tabs

 

Ice Warm Chords & Tabs

Inme Chords & Tabs

Version: 1 Type: Bass Tab 0 ratings
1 star 2 stars 3 stars 4 stars 5 stars
comments

Ice Warm Bass Tab

Artist - INME
Album - OVERGROWN EDEN
TRANSCRIBED BY - DOMINIC WHITE
STANDARD TUNING - EADG
IM PRETTY SURE THIS 99.9% RIGHT BUT FEEL FREE TO MAKE ANY CORRECTIONS
INTRO

G|--------|----------------------------|------------------7--------- 
D|0-------|---5-3------------3--5-5/--7|---5-3------------7---7-7-7/
A|- 3-1-0-|------5-3-4-5-6-6-----------|------5-3-4-5-6-6-----------
E|--------|3-3-------------------------|3-3-------------------------

Verse 
G|------------------------|
D|------------------------|
A|-----------------6-6----|       
E|--3-3-------------------|

G|------------------------|
D|------------------------|
A|-----------------6-6--7-|
E|--3-3-------------------|

G|--------------------------------|
D|----------------------6h7p6-----| Bend these Hammers
A|-----------------6-6-------6h7--|
E|--3-3---------------------------|
[ Tab from: http://www.guitartabs.cc/tabs/i/inme/ice_warm_btab.html ]
G|------------------------|
D|------------------------|
A|-----------------6-6----|       
E|--3-3-------------------|

Pre-Chorus (high pitched vocals) x4
G|-----------|
D|-----------|
A|--------6--|     
E|--3--------|

Fill
G|------|
D|------|
A|--5/--|     
E|------|

Chorus x4
G|------------------------------------|
D|------------------------------------|
A|----------6-6-6-6-------------------|      
E|--6-6-6-----------4/55-5-xx3/4xx4/5-|

Then
G|--------------------3/5------12-14-------|
D|----5-3-----------------12-14-----14-13--|
A|--------5-3h4h5-6-6----------------------|
E|-3-3-------------------------------------|

Verse
Pre-Chorus x4
Chorus x4
Then Intro from First line till end

Bridge x2
G|--------------------|
D|--------------------|
A|----------6-6-6-6-6-|      
E|3-3-3-3-3-----------|

Then just the Chorus Until the end

FOR ANY CORRECTIONS OR OTHER TABS JUST E-MAIL ME AT - black_sheep87@hotmail.com
or at white0806@aol.com.  thanx
Comments