Inme - Gelosea Chords & Tabs

 

Gelosea Chords & Tabs

Inme Chords & Tabs

Version: 2 Type: Tab 0 ratings
1 star 2 stars 3 stars 4 stars 5 stars
comments

Gelosea Tab

   
Intro:
E------------------------------|
B------------------------------|
G------------------------------|
D-0-0-0-0-11-0-0-0-0-12-0-0-12-|
A-0-0-0-0-11-0-0-0-0-12-0-0-12-| x3 
D-0-0-0-0-11-0-0-0-0-12-0-0-12-|   

E--------------------------|
B--------------------------|
G--------------------------|
D-0-0-0-0-11-0-4-0-1-1-1-1-|
A-0-0-0-0-11-0-4-0-1-1-1-1-| 
D-0-0-0-0-11-0-4-0-1-1-1-1-|    
                                
                                

Verse:

E-------------------------------------------------------------|
B-------------------------------------------------------------|
G-------------------------------------------------------------|
D-----5-------5-------9-------10-----5-------5-------9-----10-|
A---0---0---0---0---7---7---8------0---0---0---0---7----------|
D-0-------0-------7-------8------0-------0-------7-------8----|
                                                
                                                  
Chorus:                                           

E-------------------|-------------------|
B-------------------|-------------------|
G-------------------|-6-6-6-------------|
D-4-4-4-4-4-4-4-4-7-|-------6-6-6-6h7p6-|
A-4-4-4-4-4-4-4-4-7-|-------------------|
D-4-4-4-4-4-4-4-4-7-|-------------------|

E---------------------------------|
B---------------------------------|
G---------------------------------|
D-0-0-0-0-0-0-0-0-2-2-2-2-2-2-2-2-|
A-0-0-0-0-0-0-0-0-2-2-2-2-2-2-2-2-|
D-0-0-0-0-0-0-0-0-2-2-2-2-2-2-2-2-|

E---------------------|-----------------|
B---------------------|-----------------|
G---------------------|-----------------|
D-11-11-11-11-9-7/6-4-|-4-x-4-x-4-x-4-7-|
A-11-11-11-11-9-7/6-4-|-4-x-4-x-4-x-4-7-|
D-11-11-11-11-9-7/6-4-|-4-x-4-x-4-x-4-7-|

E-------------------|-------------------|
B-------------------|-------------------|
G-6-6-6-------------|-------------------|
D-------6-6-6-6H7P6-|-0-0-0-0-0-0-0-0---|
A-------------------|-0-0-0-0-0-0-0-0---|
D-------------------|-0-0-0-0-0-0-0-0---|
[ Tab from: http://www.guitartabs.cc/tabs/i/inme/gelosea_tab_ver_2.html ]
E-----------------|---------------------|  
B-----------------|---------------------|  
G-----------------|---------------------|
D-2-2-2-2-2-2-2-2-|-11-11-11-11-9-7/6-4-|  
A-2-2-2-2-2-2-2-2-|-11-11-11-11-9-7/6-4-|  
D-2-2-2-2-2-2-2-2-|-11-11-11-11-9-7/6-4-|  
                                           
                                           
Interlude:

E----------------------------------------------------------------------|
B----------------------------------------------------------------------|
G----------------------------------------------------------------------|
D-----9-------9-------5-------5-------7-------7---------12----------12-|
A---7---7---7---7---3---3---3---3---5---5---5---5----10----10----10----|
D-7-------7-------3-------3-------5-------5-------10----------10-------|

E-------------------------------|
B-------------------------------|  
G-------------------------------|  
D-------5h7-7-------5h7-7-------|
A-5h7-7-------5h7-7-------5h7-7-| x3    
D-------------------------------|     
                                      
                                     
                                       
                                      

Chorus 2:



1.                     

E-----------------------------------------------|
B-----------------------------------------------|
G-----------------------------------------------|
D-11-11-11-11-9-7/6-4------0-0-0-11-0-4-1-1-1-1-|
A-11-11-11-11-9-7/6-4------0-0-0-11-0-4-1-1-1-1-|
D-11-11-11-11-9-7/6-4------0-0-0-11-0-4-1-1-1-1-|
                                          
                                          
                           

Outro:

E-------------------------------------------------------------------------|
B-------------------------------------------------------------------------|
G-----2-------2-------6-------6-------------------------------------------|
D-------------------------------------2-----2-----2-----------------------|
A---4---4---4---4---7---7---7---7---0-----0-----0---0-2h4-4-4-4-4-2-0-----|
D-4-------4-------7-------7-------0-----0-----0-----------------------6-4-|


Order:

intro
Verse
chorus 1
Verse
chorus 1
Interlude
chorus 2
Outro
Comments