Inme - Firefly Chords & Tabs

 

Firefly Chords & Tabs

Inme Chords & Tabs

Version: 3 Type: Tab 0 ratings
1 star 2 stars 3 stars 4 stars 5 stars
comments

Firefly Tab

   
tabbed by MARCUS LUBBOCK
inme firefly
taken from forthcoming album

chords used
F5   244xxx
Am   x02210
Em   022xxx
c5   81010xxx
Eb5  x688xx
E5   799xxx
A5   577xxx
| | = 1 bar
H = hammer

opening chord

e-0--------
b-0--------
g-2--------

Intro is harmonics on the 5 fret i let you work out where

verse

|F5| |Am| |F5| |Em|

pre chorus

|c5| |Eb5| |E5| |E5|
riff just before chorus

g-9h10-9h10-9h10-9h10-9h10-----

Chorus

|E5| |B5| |A5| |A5|
[ Tab from: http://www.guitartabs.cc/tabs/i/inme/firefly_tab_ver_3.html ]
Clean Riff:
e----------------------------------------------------------------------
B----------------------------------------------------------------------
G-----9-------8-------8-------8-------9-------8-------8-------8--------
D---9---9---9---9---7---7---7---7---9---9---9-------7---7---7----------
A-7-------9-------7-------7-------7-------9-------7-------7------------
E----------------------------------------------------------------------


e----------------------------------------------------------------------
B----------------------------------------------------------------------
G-----9-------8--------------------------------------------------------
D---9---9---9---9--7--7--7--7--7--7--7---------------------------------
A-7-------9--------7--7--7--7--7--7--7---------------------------------
E------------------5--5--5--5--5--5--5---------------------------------

Chorus

|E5| |B5| |A5| |A5|

enjoy this song by a brillant band
Comments