Inme - Firefly Chords & Tabs

 

Firefly Chords & Tabs

Inme Chords & Tabs

Version: 1 Type: Chords 0 ratings
1 star 2 stars 3 stars 4 stars 5 stars
comments

Firefly Chords

This is my first tab so if it goes rong sorry   if u see n e fin
or wana tell me sumfin email me at green_plastic_trees@hotmail.com
Here it is
pretty easy

chorus:
--7--7--5--7-----------------
--7--7--5--7-----------------
--9--8--6--8-----------------
--9--9--7--9-----------------  X2
--7--9--7--9-----------------
--7--7--5--7-----------------
[ Tab from: http://www.guitartabs.cc/tabs/i/inme/firefly_crd.html ]
Its all over now, uve killed me X4


interlude:

-------------------------------------------
-------------------------------------------
-----9----8----6--6------------------------
----9----9----7--7--------------X4---------
---7--7-9--9-7--7--7-----------------------
-------------------------------------------
On the last time slowly fade in to the lst chord thn go to chorus 
again
Comments