Inme - Firefly Chords & Tabs

 

Firefly Chords & Tabs

Inme Chords & Tabs

Version: 2 Type: Bass Tab 0 ratings
1 star 2 stars 3 stars 4 stars 5 stars
comments

Firefly Bass Tab

InMe - Firefly

Instrument - Bass
Tuning - Drop D (DADG)
Tabber - Michael Dixon

The timin and order isnt there but its easy enough.
A great english grunge/prog rock band, and i think there gonna be huge.
As an englishman/child im only 14 im pretty proud 2 have a band like that
in my country! BIG THUMBS UP! THE ONLY GOOD NEW GRUNGE BAND ABOUT!

Intro

G -------------------|----------------|
D ------1h2-1h2-1h2--|----------------|
A --5-0-------------5|----------------|
D 3------------------|---3-5-2---1h2p1|

Verse

[ Tab from: http://www.guitartabs.cc/tabs/i/inme/firefly_btab_ver_2.html ]
G ------|--------------|
D ------|--------------|
A --5-0-|--------------|
D 3-----|-3-5-2---1h2p1|

Pre Chorus

Pt.1

G -----------------------------------|
D ---------------------------5-5-5-5-|
A 3-3-3-3--6-6-6-6--7-7-7-7----------|
D -----------------------------------|

Pt.2

G ---------------------------------|
D ---------------------------------|
A 3-3-3-3--6-6-6-6--7-7-7-7-7-7-7-7|
D ---------------------------------|

Chorus


G ----------------------------------|
D ----------------------------------|
A 2-2-2-2--7-7-7-7--0-0-0-0-0-0-0-0-|
D ----------------------------------|
Comments