Inme - Firefly Chords & Tabs

 

Firefly Chords & Tabs

Inme Chords & Tabs

Version: 1 Type: Bass Tab 0 ratings
1 star 2 stars 3 stars 4 stars 5 stars
comments

Firefly Bass Tab

InMe - Firefly

Instrument - Bass
Tuning - Drop D (DADG)
Tabber - Michael Dixon

I wrote a tab for this song a while back and when this song is added to the archives
i will delete the old wrong tab for this song. This new tab is 100% correct
im sure of it! Yet again though ant questions or other malarky to:
punk666bassist@hotmail.com

Intro

G -------------------|----------------|
D ------0h2-0h2-0h2--|----------------|
A --3-0-------------3|----------------|
D 3------------------|---3-5-2---1h2p1|

Verse

[ Tab from: http://www.guitartabs.cc/tabs/i/inme/firefly_btab.html ]
G ------|--------------|
D ------|--------------|
A --3-0-|--------------|
D 3-----|-3-5-2---1h2p1|

Pre Chorus

Pt.1

G -----------------------------------|
D ---------------------------5-5-5-5-|
A 3-3-3-3--6-6-6-6--7-7-7-7----------|
D -----------------------------------|

Pt.2

G ---------------------------------|
D ---------------------------------|
A 3-3-3-3--6-6-6-6--7-7-7-7-7-7-7-7|
D ---------------------------------|

Chorus


G ----------------------------------|
D ----------------------------------|
A ---------2-2-2-2--0-0-0-0-0-0-0-0-|
D 2-2-2-2---------------------------|
Comments