Inme - Faster The Chase Chords & Tabs

 

Faster The Chase Chords & Tabs

Inme Chords & Tabs

Version: 1 Type: Tab 0 ratings
1 star 2 stars 3 stars 4 stars 5 stars
comments

Faster The Chase Tab

   
FASTER THE CHASE
As recorded by InMe
Transcribed by James Credicot, Music by InMe

Gtr I (D A D G B E) - 'Untitled'
  Q=120
 4/4
                                          E E E. S        E E E. S
                                          | | |  |        | | |  |
                                          / / /  /        / / /  /

  Gtr I
                                                   ~               ~
   Q      Q  Q   Q     Q      Q  Q   Q    E E E. S H      E E E. S H
|-------------------|-------------------|---------------|---------------|
|-------------------|-------------------|---------------|---------------|
|-------------------|-------------------|----------6----|----------6----|
|-------------------|-------------------|-5-5-5--5------|-4-4-4--4------|
|-------------------|-------------------|-5-5-5--5------|-4-4-4--4------|
|-11b12r=11--7--11--|-11b12r=11--5--11--|-5-5-5--5------|-4-4-4--4------|


  E E E. S E E E.   S E E E. S E E E.   S E E E. S E E E.   S E E E. S
|-----------------|-------------------|-------------------|-------------|
|-----------------|-------------------|-------------------|-------------|
|-----------------|-------------------|-------------------|-------------|
|-5-5-5--5-5-5-5--|-5-5-5-5--5-7-7-7--|-7-9-9-9--9-9-9-9--|-9-9-7-7--7--|
|-5-5-5--5-5-5-5--|-5-5-5-5--5-7-7-7--|-7-9-9-9--9-9-9-9--|-9-9-7-7--7--|
|-5-5-5--5-5-5-5--|-5-5-5-5--5-7-7-7--|-7-9-9-9--9-9-9-9--|-9-9-7-7--7--|


  E E   E  E   E E E. S E E E.   T E E E. S E E E   Q  Q  Q  Q
|------------|-----------------|------------------|-------------|
|------------|-----------------|------------------|-------------|
|------------|-----------------|------------------|-------------|
|-7----------|-5-5-5--5-5-5-5--|-5-5-5-5--5-7-7-7-|-2--4--5--7--|
|-7----------|-5-5-5--5-5-5-5--|-5-5-5-5--5-7-7-7-|-2--4--5--7--|
|-7-7/-14\-0-|-5-5-5--5-5-5-5--|-5-5-5-5--5-7-7-7-|-2--4--5--7--|


                                         PM------|
  Q  Q  Q  Q    Q  Q  Q   E E   Q  Q  Q  S. T S. T
|-------------|---------------|--------------------|
|-------------|----------10-7-|--------------------|
|-------------|---------------|--------------------|
|-7--7--7-----|-9--9--9-------|-9--9--9--9--9-9--9-|
|-7--7--7-----|-9--9--9-------|-9--9--9--9--9-9--9-|
|-7--7--7-----|-9--9--9-------|-9--9--9--9--9-9--9-|


  Q  Q  H      Q  Q  Q  H
|------------|------------------|
|------------|------------------|
|------------|----------6b7r====|
|-5--5--5----|-5--5--5----------|
|-5--5--5----|-5--5--5----------|
|-5--5--5----|-5--5--5----------|


  Q  Q  Q   E E   Q  E E E Q  E   Q  Q  Q  E. S
|---------------|---------------|---------------|
|----------10-7-|---------------|---------------|
|---------------|---------------|---------------|
|-9--9--9-------|-9--9-9-9-9--5-|-7--7--7--7--7-|
|-9--9--9-------|-9--9-9-9-9--5-|-7--7--7--7--7-|
|-9--9--9-------|-9--9-9-9-9--5-|-7--7--7--7--7-|


                       PM-|
  Q  Q  Q  Q        Q  Q  Q  Q    Q  Q  Q  Q
|---------------||--------------|--------------|
|---------------||o-------------|--------------|
|----------6b7r=||==7--7--7--7--|--------------|
|-7--7--7-------||--7--7--7--7--|-7--7--7--7---|
|-7--7--7-------||o-5--5--5--5--|-7--7--7--7---|
|-7--7--7-------||--------------|-7--7--7--7---|


  Q  Q  Q  Q    Q  Q  Q  Q       Q      Q  Q   Q
|-------------|--------------||-------------------|
|-------------|-------------o||-------------------|
|-------------|--------------||-------------------|
|-9--9--9--9--|-5--5--5--5---||-------------------|
|-9--9--9--9--|-5--5--5--5--o||-------------------|
|-9--9--9--9--|-5--5--5--5---||-11b12r=11--7--11--|


  E E E. S E E E. S   E E E. S E E E.   S E E E. S E E E.
|-------------------|-----------------|---------------------|
|-------------------|-----------------|---------------------|
|-------------------|-----------------|---------------------|
|-5-5-5--5-5-5-5--5-|-5-5-5--5-7-7-7--|-7-9-9-9--9-9-9-9----|
|-5-5-5--5-5-5-5--5-|-5-5-5--5-7-7-7--|-7-9-9-9--9-9-9-9----|
|-5-5-5--5-5-5-5--5-|-5-5-5--5-7-7-7--|-7-9-9-9--9-9-9-9----|

[ Tab from: http://www.guitartabs.cc/tabs/i/inme/faster_the_chase_tab.html ]
  S E E E. E   E  E   E E E.  S E E E.   S E E E.  S E E E.   Q  Q  Q  E E
|-------------------|------------------|--------------------|--------------|
|-------------------|------------------|--------------------|--------------|
|-------------------|------------------|--------------------|--------------|
|-9-7-7-7-----------|-5-5-5---5-5-5-5--|-5-5-5-5---5-7-7-7--|-2--4--5--7-7-|
|-9-7-7-7-----------|-5-5-5---5-5-5-5--|-5-5-5-5---5-7-7-7--|-2--4--5--7-7-|
|-9-7-7-7--7/-14\-0-|-5-5-5---5-5-5-5--|-5-5-5-5---5-7-7-7--|-2--4--5--7-7-|


 6/8
  E E E E E E   E E E E E E   E E E E E E   E E E Q.      E E E E E E
|-------------|-------------|-------------|-------------|-------------|
|-------------|-------------|-------------|-------------|-------------|
|-------------|-------------|-------------|-------6b7r==|=============|
|-9-9-9-9-9-9-|-9-9-9-9-9-9-|-5-5-5-7-7-7-|-5-5-5-------|-9-9-9-9-9-9-|
|-9-9-9-9-9-9-|-9-9-9-9-9-9-|-5-5-5-5-5-5-|-5-5-5-------|-9-9-9-9-9-9-|
|-9-9-9-9-9-9-|-9-9-9-9-9-9-|-5-5-5-5-5-5-|-5-5-5-------|-9-9-9-9-9-9-|


                                                4/4
  E E E E E E   E E E E E E   E E E E E Q        Q Q Q Q   Q  Q  Q  Q
|-------------|-------------|----------------||----------|------------|
|-------------|-------------|----------------||o---------|------------|
|-------------|-------------|-----------6b7--||--7-7-7-7-|------------|
|-9-9-9-9-9-9-|-7-7-7-7-7-7-|-7-7-7-7-7------||--7-7-7-7-|-7--7--7--7-|
|-9-9-9-9-9-9-|-7-7-7-7-7-7-|-7-7-7-7-7------||o-5-5-5-5-|-7--7--7--7-|
|-9-9-9-9-9-9-|-7-7-7-7-7-7-|-7-7-7-7-7------||----------|-7--7--7--7-|


  Q Q Q Q   Q Q Q Q     W   Wx4
|---------|----------||---|--------|
|---------|---------o||---|--------|
|---------|----------||---|--------|
|-9-9-9-9-|-5-5-5-5--||-5-|--------|
|-9-9-9-9-|-5-5-5-5-o||-5-|--------|
|-9-9-9-9-|-5-5-5-5--||-5-|--------|


    E E E E E E E E   E E E E E E E E   E E E E E E E E   E E E E E E E E
||------------------|-----------------|-----------------|-----------------||
||o-----------------|-----------------|-----------------|----------------o||
||------------------|-----------------|-7-7-7-7-7-7-7-7-|-----------------||
||--5-5-5-5-5-5-5-5-|-5-5-5-5-5-5-5-5-|-7-7-7-7-7-7-7-7-|-7-7-7-7-7-7-7-9-||
||o-5-5-5-5-5-5-5-5-|-5-5-5-5-5-5-5-5-|-5-5-5-5-5-5-5-5-|-7-7-7-7-7-7-7-9o||
||--5-5-5-5-5-5-5-5-|-5-5-5-5-5-5-5-5-|-----------------|-7-7-7-7-7-7-7-9-||


   Q     Q  Q   Q    Q      Q  Q   Q      Q  Q  Q  Q   Q Q Q Q Q   Q Q Q Q
|-----------------|-------------------||-------------|-----------|----------|
|-----------------|-------------------||o------------|-----------|----------|
|-----------------|-------------------||--7--7--7--7-|-----------|----------|
|-----------------|-------------------||--7--7--7--7-|-7-7-7-7-7-|-9-9-9-9--|
|-----------------|-------------------||o-5--5--5--5-|-7-7-7-7-7-|-9-9-9-9--|
|-11b12r11--7--11-|-11b12r=11--5--11--||-------------|-7-7-7-7-7-|-9-9-9-9--|


  Q Q Q Q  3x Q Q Q Q   Q Q Q Q   W   W
|----------||---------|---------|---|----------|----|
|---------o||---------|---------|---|----------|----|
|----------||-7-7-7-7-|---------|---|----------|----|
|-5-5-5-5--||-7-7-7-7-|-7-7-7-7-|-9-|-5--------|----|
|-5-5-5-5-o||-5-5-5-5-|-7-7-7-7-|-9-|-5--------|----|
|-5-5-5-5--||---------|-7-7-7-7-|-9-|-5--------|----|


 
Duration Legend
---------------
W - whole; H - half; Q - quarter; E - 8th; S - 16th; T - 32nd; X - 64th; a - acciaccatura
+ - note tied to previous; . - note dotted; .. - note double dotted
Uncapitalized letters represent notes that are staccato (1/2 duration)
Irregular groupings are notated above the duration line
Duration letters will always appear directly above the note/fret number it represents the
duration for.  Duration letters with no fret number below them represent rests.  Multi-
bar rests are notated in the form Wxn, where n is the number of bars to rest for.  Low
melody durations appear below the staff

Tablature Legend
----------------
 h   - hammer-on
 p   - pull-off
 b   - bend
 pb  - pre-bend
 r   - bend release (if no number after the r, then release immediately)
 /\  - slide into or out of (from/to "nowhere")
 s   - legato slide
 S   - shift slide
 - natural harmonic
[n]  - artificial harmonic
n(n) - tapped harmonic
 ~   - vibrato
 tr  - trill
 T   - tap
 TP  - trem. picking
 PM  - palm muting
\n/  - tremolo bar dip; n = amount to dip
 \n  - tremolo bar down
 n/  - tremolo bar up
/n\  - tremolo bar inverted dip
 =   - hold bend; also acts as connecting device for hammers/pulls
 <> - volume swell (louder/softer)
 x   - on rhythm slash represents muted slash
 o   - on rhythm slash represents single note slash

Misc Legend
-----------
 |  - bar
||  - double bar
||o - repeat start
o|| - repeat end
*|  - double bar (ending)
 :  - bar (freetime)
 $  - Segno
 &  - Coda
Tempo markers -  = BPM(8/16=s8/s16), where s8 = swing 8ths, s16 = swing 16ths
Comments