Inme - Crushed Like Fruit Chords & Tabs

 

Crushed Like Fruit Chords & Tabs

Inme Chords & Tabs

Version: 4 Type: Tab 0 ratings
1 star 2 stars 3 stars 4 stars 5 stars
comments

Crushed Like Fruit Tab

   
-------------------------------------------------------------------------------
			     Crushed Like Fruit - Inme
-------------------------------------------------------------------------------

Tabbed by: Robbie Cook
Email: cookandhisguitar@msn.com

Tuning: Low To High (D G C F A D) But standard sounds good enough

OK, pretty cool song, sounds great and once you get the hang of it it's really fun to play and
easy too. Any problems email me, I'm pretty sure this is 100% correct. Please enjoy!!!



e|---------------|--------------------------|--------------------------------|
B|---------------|--------------------------|--------------------------------|
G|---------------|--------------------------|--------------------------------|
D|---------------|--------------------------|--2--2-----------5--------------|
A|------3-----2--|--2--3--3--3--3--5--5--2--|--0-----0--2--0-----------------|
E|---1-----1-----|--------------------------|--------------------------------|

e|-----------------------------------|---------------------------------------|
B|-----------------------------------|---------------------------------------|
G|-----------------------------------|-----5-\-------------------------------|
D|-----------------------------------|--3------------------------------------|
A|---------5-/-7--7--7--7-\-5--5-----|-------------2-------------------------|
E|---0--2-------------------------2--|----------1----------------------------|

e|---------------------------------------------------------------------------|
B|---------------------------------------------------------------------------|
G|---------------------------------------------------------------------------|
D|---------------------------------------------------------------------------|
A|---2--3--3--3--3-/-5--5--2-------------------------------------------------|
E|---------------------------------------------------------------------------|





e|---------------------------------------------------------------------------|
B|---------------------------------------------------------------------------|
G|---------------------------------------------------------------------------|
D|---------------------------------------------------------------------------|
A|---7--7--7--7----7--7--7--7----7--7--7--7----------------------------------|
E|---5--5--5--5----5--5--5--5----5--5--5--5----------------------------------|

e|---------------------------------------------------------------------------|
B|---------------------------------------------------------------------------|
G|---------------------------------------------------------------------------|
D|-----------------5-/-7--7--7--7-\-5--5-------------------------------------|
A|---7--7--7--7---------------------------2----------------------------------|
E|---5--5--5--5--------------------------------------------------------------|




[ Tab from: http://www.guitartabs.cc/tabs/i/inme/crushed_like_fruit_tab_ver_4.html ]
e|---------------------------------------------------------------------------|
B|---------------------------------------------------------------------------|
G|---------------------------------------------------------------------------|
D|---3---3--x--x--3----3--x--x--3---3----------------------------------------|
A|---3---3--x--x--2----2--x--x--3---3----------------------------------------|
E|---1---1--x--x--1----1--x--x--1---1----------------------------------------|

e|---------------------------------------------------------------------------|
B|---------------------------------------------------------------------------|
G|---------------------------------------------------------------------------|
D|---x--x--3-----------------------------------------------------------------|
A|---x--x--2----2--2--2--2-/-3--3--3--3-/-5--5--0----------------------------|
E|---x--x--1-----------------------------------------------------------------|





e|---------------------------------------------------------------------------|
B|---------------------------------------------------------------------------|
G|---------------------------------------------------------------------------|
D|-------------------------------5----5--------------------------------------|
A|---7---7--x--x--5----5--x--x-----------------------------------------------|
E|---5---5--x--x--2----2--x--x---5----5--------------------------------------|

e|---------------------------------------------------------------------------|
B|---------------------------------------------------------------------------|
G|---------------------------------------------------------------------------|
D|--------------5--5--5--5-/-7--7--7--7-\-5--5-------------------------------|
A|---x--x--7------------------------------------2----------------------------|
E|---x--x--5-----------------------------------------------------------------|





e|---------------------------------------------------------------------------|
B|---------------------------------------------------------------------------|
G|---5----5--x--x------------------------------------------------------------|
D|---3----3--x--x--3----3--x--x--3-------------------------------------------|
A|-----------------2----2--x--x--3-------------------------------------------|
E|-----------------1----1--x--x--1-------------------------------------------|

e|---------------------------------------------------------------------------|
B|---------------------------------------------------------------------------|
G|---------------------------------------------------------------------------|
D|---x--x--3-----------------------------------------------------------------|
A|---x--x--2----2--2--2--2-/-3--3--3--3-/-5--5--0----------------------------|
E|---x--x--1-----------------------------------------------------------------|





e|---------------------------------------------------------------------------|
B|---------------------------------------------------------------------------|
G|---------------------------------------------------------------------------|
D|-------------------------------5----5--------------------------------------|
A|---7----7--x--x--2----2--x--x----------------------------------------------|
E|---5----5--x--x--5----5--x--x--5----5--------------------------------------|

e|---------------------------------------------------------------------------|
B|---------------------------------------------------------------------------|
G|---------------------------------------------------------------------------|
D|--------------5--5--5--5-/-7--7--7--7-\-5--5-------------------------------|
A|---x--x--7------------------------------------2----------------------------|
E|---x--x--5-----------------------------------------------------------------|
Comments