Inme - Crushed Like Fruit Chords & Tabs

 

Crushed Like Fruit Chords & Tabs

Inme Chords & Tabs

Version: 1 Type: Tab 0 ratings
1 star 2 stars 3 stars 4 stars 5 stars
comments

Crushed Like Fruit Tab

Artist: InMe
Title: Crushed Like Fruit
Album: Overgrown Eden

Tabbed by: Alan Good
Tuning: Dropped D (DADGBe)

I know this is long winded, but the song has so many pieces 
(and the main riff changes so many times) that it it's better 
to put the song down in its' entirity rather than trying to put all 
the different bits together. There is a more complicated way of 
playing this, i havent figured it out yet but ill post it when i do.
By the way if anyone has a tab for "Mosaic" by InMe could they
Please email it to the addy at the end 

* = palm mute
/ = slide

INTRO:
e-----------------------------------------------------------------------------------
b-----------------------------------------------------------------------------------
g-----------------------------------------------------------------------------------
d-------------------------------------------------------------------3-3/5-5-5/3-3---
a---1---0-------------0-1-1-1/3-3-3------5---0---8---5------------------------------
d-1---1--------------------------------5---5---5---5--------------------------------
-
e---------------------------------------------------------------
b---------------------------------------------------------------
g---------------------------------------------------------------
d---8-----------------------------------------------------------
a-6-----0-------------0-1-1-1/3-3-3-----------------------------
d-----1---------------------------------------------------------

e-----------------------------------------------------------------------------------------
b-----------------------------------------------------------------------------------------
g-----------------------------------------------------------------------------------------
d--5-5-5-5-5-5-5-5-5-5-5-5--3-3/5-5-5/3-3--1-1-1-x-1-1-1-x-1-1-1-x-1-1-1------------------
a--5-5-5-5-5-5-5-5-5-5-5-5-----------------1-1-1-x-0-0-0-x-1-1-1-x-0-0-0--0-1-1-1/3-3-3---
d--5-5-5-5-5-5-5-5-5-5-5-5-----------------1-1-1-x-1-1-1-x-1-1-1-x-1-1-1------------------


e-----------------------------------------------------------------------------------------
b-----------------------------------------------------------------------------------------
g-----------------------------------------------------------------------------------------
d--5-5-5-5-5-5-5-5-5-5-5-5--3-3/5-5-5/3-3--1-1-1-x-1-1-1-x-1-1-1-x-1-1-1------------------
a--5-5-5-5-5-5-5-5-5-5-5-5-----------------1-1-1-x-0-0-0-x-1-1-1-x-0-0-0--0-1-1-1/3-3-3---
d--5-5-5-5-5-5-5-5-5-5-5-5-----------------1-1-1-x-1-1-1-x-1-1-1-x-1-1-1------------------


e------------------------------------------------------
b------------------------------------------------------
g------------------------------------------------------
d--5-5-5-5-5-5-5-5-5-5-5-5--3-3/5-5-5/3-3--------------
a--5-5-5-5-5-5-5-5-5-5-5-5-----------------------------
d--5-5-5-5-5-5-5-5-5-5-5-5-----------------------------

VERSE: (sorta confusing but play around with the chords below and you should get it):
e-----------------------------------------------------------------------------------------------
b-----------------------------------------------------------------------------------------------
g-----------------------------------------------------------------------------------------------
d-----------------------------------------------------------------------------------------------
a-1-1-1-1---1-0-1-3-5-5-5-5--5-5-3--3-3-1--1-1-1-1--1-0-1-3-5-5-5-5--5-5-5--5-5-5--5-5-5--5-5-5-
d-1-1-1-1---1-0-1-3-5-5-5-5--5-5-3--3-3-1--1-1-1-1--1-0-1-3-5-5-5-5--5-5-5--5-5-5--5-5-5--5-5-5-
  * * * *   * * * * * * * *  * * *  * * *  * * * *  * * * * * * * *  * * *  * * *  * * *  * * *

BREAK: (clean, hit distortion on F chord)
e--------------------------------------------------------------------------
b--------------------------------------------------------------------------
g--------------------------------------------------------------------------
d------7-----4-----3---3/5-3-2-----7-----4--3-3-3-3-3-3-3-3-3-3-3-3--------
a----7-----4-----3---------------7-----4----3-3-3-3-3-3-3-3-3-3-3-3--------
d--7-----4-----3---------------7-----4------3-3-3-3-3-3-3-3-3-3-3-3--------
					    * * * * * * * * *
MAIN RIFF:
e-----------------------------------------------------------------------------------------
b-----------------------------------------------------------------------------------------
g-----------------------------------------------------------------------------------------
d-1-1-1-x-1-1-1-x-1-1-1-x-1-1-1------------------5-5-5-5-5-5-5-5-5-5-5-5--3-3/5-5-5/3-3---
a-1-1-1-x-0-0-0-x-1-1-1-x-0-0-0--0-1-1-1/3-3-3---5-5-5-5-5-5-5-5-5-5-5-5------------------
d-1-1-1-x-1-1-1-x-1-1-1-x-1-1-1------------------5-5-5-5-5-5-5-5-5-5-5-5------------------


e-----------------------------------------------------------------------------------------
b-----------------------------------------------------------------------------------------
g-----------------------------------------------------------------------------------------
d--1-1-1-x-1-1-1-x-1-1-1-x-1-1-1-----------------5-5-5-5-5-5-5-5-5-5-5-5--3-3/5-5-5/3-3---
a- 1-1-1-x-0-0-0-x-1-1-1-x-0-0-0--0-1-1-1/3-3-3--5-5-5-5-5-5-5-5-5-5-5-5------------------
d--1-1-1-x-1-1-1-x-1-1-1-x-1-1-1-----------------5-5-5-5-5-5-5-5-5-5-5-5------------------
[ Tab from: http://www.guitartabs.cc/tabs/i/inme/crushed_like_fruit_tab.html ]
VERSE:
e-----------------------------------------------------------------------------------------------
b-----------------------------------------------------------------------------------------------
g-----------------------------------------------------------------------------------------------
d-----------------------------------------------------------------------------------------------
a-1-1-1-1---1-0-1-3-5-5-5-5--5-5-3--3-3-1--1-1-1-1--1-0-1-3-5-5-5-5--5-5-5--5-5-5--5-5-5--5-5-5-
d-1-1-1-1---1-0-1-3-5-5-5-5--5-5-3--3-3-1--1-1-1-1--1-0-1-3-5-5-5-5--5-5-5--5-5-5--5-5-5--5-5-5-
  * * * *   * * * * * * * *  * * *  * * *  * * * *  * * * * * * * *  * * *  * * *  * * *  * * *

BREAK: (clean, hit distortion on F chord)
e--------------------------------------------------------------------------
b--------------------------------------------------------------------------
g--------------------------------------------------------------------------
d------7-----4-----3---3/5-3-2-----7-----4--3-3-3-3-3-3-3-3-3-3-3-3--------
a----7-----4-----3---------------7-----4----3-3-3-3-3-3-3-3-3-3-3-3--------
d--7-----4-----3---------------7-----4------3-3-3-3-3-3-3-3-3-3-3-3--------
					    * * * * * * * * *

BRIDGE: (Distorted)	
e-------------------------------------------------------------------------------
b-------------------------------------------------------------------------------
g------------------------------------------------------------------------------- 
d-7-7-7-7-7-7-7-7--4-4-4-4-4-4-4-4--3-3-3-3-3-3-3-3-3-3-3-3-3-3-3-3-------------
a-7-7-7-7-7-7-7-7--4-4-4-4-4-4-4-4--3-3-3-3-3-3-3-3-3-3-3-3-3-3-3-3-------------
d-7-7-7-7-7-7-7-7--4-4-4-4-4-4-4-4--3-3-3-3-3-3-3-3-3-3-3-3-3-3-3-3-------------

e---------------------------------------------------------------------------------------------
b---------------------------------------------------------------------------------------------
g--------------------------------------------------------------------------------------------- 
d-7-7-7-7-7-7-7-7--4-4-4-4-4-4-4-4--3-3-3-3-3-3-3-3-3-3-3-3-3-3-3--3-x-x-5-x-x-6-x-x-7-x-x-8--
a-7-7-7-7-7-7-7-7--4-4-4-4-4-4-4-4--3-3-3-3-3-3-3-3-3-3-3-3-3-3-3--3-x-x-5-x-x-6-x-x-7-x-x-8--
d-7-7-7-7-7-7-7-7--4-4-4-4-4-4-4-4--3-3-3-3-3-3-3-3-3-3-3-3-3-3-3--3-x-x-5-x-x-6-x-x-7-x-x-8--

CHORUS:
e-------------------------------------------------------------------------------------
b-------------------------------------------------------------------------------------
g-------------------------------------------------------------------------------------
d-9-9-9-9-9-9-9-9-9-11-7-5-5-5-5-5-5-5-5/7-9-9-9-9-9-9-9-9-9-11-7-5-5-5-5-5-5-5-5/7---
a-9-9-9-9-9-9-9-9-9-11-7-5-5-5-5-5-5-5-5/7-9-9-9-9-9-9-9-9-9-11-7-5-5-5-5-5-5-5-5/7---
d-9-9-9-9-9-9-9-9-9-11-7-5-5-5-5-5-5-5-5/7-9-9-9-9-9-9-9-9-9-11-7-5-5-5-5-5-5-5-5/7---

e-----------------------------------------------------------------------------------------
b-----------------------------------------------------------------------------------------
g-----------------------------------------------------------------------------------------
d-9-9-9-9-9-9-9-9-9-11-7-5-5-5-5-5-5-5-5/7-9-9-9-9-9-9-9-9-9-11-7-5-5-5-5-5-x-5-x-5-x-5---
a-9-9-9-9-9-9-9-9-9-11-7-5-5-5-5-5-5-5-5/7-9-9-9-9-9-9-9-9-9-11-7-5-5-5-5-5-x-5-x-5-x-5---
d-9-9-9-9-9-9-9-9-9-11-7-5-5-5-5-5-5-5-5/7-9-9-9-9-9-9-9-9-9-11-7-5-5-5-5-5-x-5-x-5-x-5---

e---------------------------------------------------------------
b------------------------------------8------8--8-8-8-8-8-8-8-8--
g----------------------------------6--6---6--6------------------
d--------------------------------5------5-----------------------
a---1---0---1---0--0-1-1-1/3-3-3--------------------------------
d-1---1---1---1-------------------------------------------------

e-------------------------------------------------------------------------------------
b-------------------------------------------------------------------------------------
g-------------------------------------------------------------------------------------
d-9-9-9-9-9-9-9-9-9-11-7-5-5-5-5-5-5-5-5/7-9-9-9-9-9-9-9-9-9-11-7-5-5-5-5-5-5-5-5/7---
a-9-9-9-9-9-9-9-9-9-11-7-5-5-5-5-5-5-5-5/7-9-9-9-9-9-9-9-9-9-11-7-5-5-5-5-5-5-5-5/7---
d-9-9-9-9-9-9-9-9-9-11-7-5-5-5-5-5-5-5-5/7-9-9-9-9-9-9-9-9-9-11-7-5-5-5-5-5-5-5-5/7---

e-----------------------------------------------------------------------------------------
b-----------------------------------------------------------------------------------------
g-----------------------------------------------------------------------------------------
d-9-9-9-9-9-9-9-9-9-11-7-5-5-5-5-5-5-5-5/7-9-9-9-9-9-9-9-9-9-11-7-5-5-5-5-5-x-5-x-5-x-5---
a-9-9-9-9-9-9-9-9-9-11-7-5-5-5-5-5-5-5-5/7-9-9-9-9-9-9-9-9-9-11-7-5-5-5-5-5-x-5-x-5-x-5---
d-9-9-9-9-9-9-9-9-9-11-7-5-5-5-5-5-5-5-5/7-9-9-9-9-9-9-9-9-9-11-7-5-5-5-5-5-x-5-x-5-x-5---

e---------------------------------------------------------------
b---------------------------------------------------------------
g---------------------------------------------------------------
d-1-1--1-1------------------------------------------------------
a-1-1--0-0------------------------------------------------------
d-1-1--1-1------------------------------------------------------

Questions, queries, comments, death threats and love letters welcome at:
kentucky_fried_children_@hotmail.com
Comments