Inme - Angels With Snipers Chords & Tabs

 

Angels With Snipers Chords & Tabs

Inme Chords & Tabs

Version: 1 Type: Tab

Angels With Snipers Tab

Hey this is an awesome song by InMe off the album White Butterfly
I'm not a great guitarist and havent played that long so some parts may be wrong but
anyways it still sounds good so enjoy and rate it!
Any problems or comments email me at stormbreaker29@hotmail.com

Intro (Play once)

Guitar 1

e -----------------------------------------------------------------------------------|
B -----------------------------------------------------------------------------------|
G ----------2---------2----------2---------2------------2-------------2-----------2--|
D ---------------------------------------------------0-------------0------------3----|  x1
A -----1---------1----------3----------3---------------------------------------------|
E -----------------------------------------------------------------------------------|

Intro 2

Guitar 1 -- in back of intro 2

e -----------------------------------------------------------------------------------------------|
B -----------------------------------------------------------------------------------------------|
G -----10--9--------------------10--9--------------------10h12p10----9---------------------------|
D --------------10-----------------------10-----------------------------------10-----------------| x2
A-------------------10-----------------------10--12-------------------------------10--12--10--8--|
E------------------------------------------------------------------------------------------------|

Guitar 2

e ---------------------------------------------------------|
B ---------------------------------------------------------|
G ------------------------------------77777---------88888--|
D ----88888-----10101010--------77777---------88888--------| x2
A ----66666-----10101010--------55555---------66666--------|
E ----66666------8-8-8-8-8---------------------------------|

Verse

 Guitar 1 & 2

There is nothing but bass untill "you have burned a hole in me" but this still sounds cool to put in

e -------------------------------------------|
B -------------------------------------------|
G --------------------------------------8----|
D ----8---------10---------12---------8--x5--| x5
A ----6--x5----10--x5----12--x5----6---------|
E ----6----------8----------10---------------|
  PM  ..........................................................................

Bring this in on "you have burned a hole in me"

Guitar 1 switches to this
[ Tab from: http://www.guitartabs.cc/tabs/i/inme/angels_with_snipers_tab.html ]
e -----------------------------------------------------------------------------------------------------------------------------------|
B -----------------------------------------------------------------------------------------------------------------------------------|
G ------------10-------------------14---------14----------12-----------12------------------------------------------------------------|
D ------00----------x4------00---------00---------00-----------00-------------00------12-----00----12------00------15-----00-----15--|
A -----------------------------------------------------------------------------------------------------------------------------------|
E -----------------------------------------------------------------------------------------------------------------------------------|
PM        ..                              ..                ..               ..          
        ..                     ..                       ..                      ..      
                ..


Pre chorus

Guitar 1 & 2

G--------------------------------|
D----------888888----------------|
A----------888888----------------| x1
E----------666666----------------|


Chorus

Guitar 1 & 2

e ----------------------------------------------------------------------------------------|
B ----------------------------------------------------------------------------------------|
G ----10----------------------------------------10----------------------------------------|
D ----10--x8---------10----------8-----------10--x8----10------------12----------8--------| x1
A -----8---------------10--x8-----8--x16-----8----------10--x8-------12--x8-----8--x8-----|
E ----------------------8-----------6------------------------8-------------10----------6--|

Verse 2 is played two times instead of 5 before pre chorus


Interlude

Guitar 2

e -------------------------------------------|
B -------------------------------------------|
G --------------------------------------8----|
D ----8---------10---------12---------8--x5--| x2
A ----6--x5----10--x5----12--x5----6---------|
E ----6----------8----------10---------------|


Intro 2 - Could be with Wah not 100 % sure though-- Played in back of interlude

Guitar 1

e -----------------------------------------------------------------------------------------------|
B -----------------------------------------------------------------------------------------------|
G -----10--9--------------------10--9--------------------10h12p10----9---------------------------|
D --------------10-----------------------10-----------------------------------10-----------------| x2
A-------------------10-----------------------10--12-------------------------------10--12--10--8--|
E------------------------------------------------------------------------------------------------|

Chorus

Guitar 2

e ----------------------------------------------------------------------------------------|
B ----------------------------------------------------------------------------------------|
G ----10----------------------------------------10----------------------------------------|
D ----10--x8---------10----------8-----------10--x8----10------------12----------8--------| x4
A -----8---------------10--x8-----8--x16-----8----------10--x8-------12--x8-----8--x8-----|
E ----------------------8-----------6------------------------8-------------10----------6--|


Guitar 1 - played in back of chorus


e -----------------------------------------------------------------------------------------------|
B -----------------------------------------------------------------------------------------------|
G -----10--9--------------------10--9--------------------10h12p10----9---------------------------|
D --------------10-----------------------10-----------------------------------10-----------------| x4
A-------------------10-----------------------10--12-------------------------------10--12--10--8--|
E------------------------------------------------------------------------------------------------|

Song order:

Intro
Intro 2
Verse
Pre chorus
Chorus
Intro
Verse 2 (played two times)
Interlude
Chorus (played 4 times)