Infringment - Beast Chords & Tabs

 

Beast Chords & Tabs

Infringment Chords & Tabs

Version: 1 Type: Tab 0 ratings
1 star 2 stars 3 stars 4 stars 5 stars
comments

Beast Tab

ARTIST: INFRINGMENT
TABBER: JIMMY SMITH
  SONG:    BEAST
TUNING: DROPPED D

THIS IS A GOOD SONG BY A GOOD BAND. THIS IS JUST THE INTRO AND VERSE
BECAUSE ITS ALL I HAD TIME TO POST. I WILL WORK OUT THE REST OF THE 
SONG LATER ON IN MY LIFE!!!!!!!
[ Tab from: http://www.guitartabs.cc/tabs/i/infringment/beast_tab.html ]
THERE ARE TWO GUITARS IN THIS SONG! THIS IS THE MAIN GUITAR IN IT
INTRO
-----------------------------------------------------------
-----------------------------------------------------------
-----------------------------------------------------------
-----------------------------------------------------------
-----------------------------------------------------------
-0-0-3-0-0-5-0-0-6-0-5-0-3-0-0-3-0-0-5-0-0-6-0-5-0-3-------

PLAY THIS ABOUT 6 TIMES THEN MOVE INTO THE FIRST VERSE WHICH IS

---------------------------------------------------------------
---------------------------------------------------------------
---------------------------------------------------------------
-0-0-0-0-3-3-3-3-0-0-0-0-5-5-5-5-0-0-0-0-6-6-6-6---------------
-0-0-0-0-3-3-3-3-0-0-0-0-5-5-5-5-0-0-0-0-6-6-6-6---------------
-0-0-0-0-3-3-3-3-0-0-0-0-5-5-5-5-0-0-0-0-6-6-6-6---------------
WORK OUT HOW LONG TO PLAY THIS FOR BUT ITS AROUND 6 TIMES ASWELL
THE CHORUS IS JUST THE INTRO   
ENJOY JIMMY
Comments