Infectious Grooves - Made It Chords & Tabs

 

Made It Chords & Tabs

Infectious Grooves Chords & Tabs

Version: 2 Type: Bass Tab 0 ratings
1 star 2 stars 3 stars 4 stars 5 stars
comments

Made It Bass Tab

Infectious Grooves
Made It
from Groove Family Cyco 
Tabbed by Rodrigo G. Segura (nueayr@yahoo.com)




G-|-----------------------------------------4-6-x7-5-4----------------
D-|-----4----------------4-6-x7-5-4-------4------------5--7-7-5-5-4-4-
A-|---4---7-5-4-5-7----4-------------7--5-----------------------------
E-|-5----------------5------------------------------------------------

[ Tab from: http://www.guitartabs.cc/tabs/i/infectious_grooves/made_it_btab_ver_2.html ]
G-|-5-5-4----------------6-----5-4----------14-12-11--------11-x16-13-
D-|--------------4-5-6-7---5-4------------------------14-12-----------
A-|-------x4-5-7-------------------8-7--5/12--------------------------
E-|-------------------------------------------------------------------


G-|-14-12-11--------------|--4------------7-7--7-
D-|-----------???????-----|--5--5--6-------------
A-|-----------???????-----|-----4--7--7---5-5--5-
E-|-----------------------|-----------8---6-6--6-

Comments