Inersha - Godspeed Chords & Tabs

 

Godspeed Chords & Tabs

Inersha Chords & Tabs

Version: 1 Type: Tab 0 ratings
1 star 2 stars 3 stars 4 stars 5 stars
comments

Godspeed Tab

Intro

With delay slow fade in.


e|----------------------------------------------------------------------------------|
B|-3-----5----3---5---3-------------------------------------------------------------|
G|-2-----4----2---4---2-------------------------------------------------------------|
D|-0-----2----0---2---0-------------------------------------------------------------|
A|-0-----2----0---2---0-------------------------------------------------------------|
D|-0-----2----0---2---0-------------------------------------------------------------|

e|------------------------------------------------------------------------------|
B|---------------------------------------------------------------------------3--|
G|---------------------------------------------------------------------------2--|
D|-3--3--3--3--3--3--3------3--3--3--3--3--3--3----0-0-0-0--0-0-0-0--0-0-0-0-0--|
A|-3--3--3--3--3--3--3------3--3--3--3--3--3--3----0-0-0-0--0-0-0-0--0-0-0-0-0--|
D|-3--3--3--3--3--3--3------3--3--3--3--3--3--3----0-0-0-0--0-0-0-0--0-0-0-0-0--|
   .  .  .  .  .  .  .      .  .  .  .  .  .  .    . . . .  . . . .  . . . .
e|----------------------------------------------------------------------------------|
B|-8---10--5------------------------------------------------------------------------|
G|-7---9---4---12-------------------------------------------------------------------|
D|-5---7---2---12-------------------------------------------------------------------|
A|-5---7---2---10-------------------------------------------------------------------|
D|-5---7---2---10-------------------------------------------------------------------|
[ Tab from: http://www.guitartabs.cc/tabs/i/inersha/godspeed_tab.html ]
e|------------------------------------------------------------------------------|
B|---------------------------------------------------------------------------3--|
G|---------------------------------------------------------------------------2--|
D|-3--3--3--3--3--3--3------3--3--3--3--3--3--3----0-0-0-0--0-0-0-0--0-0-0-0-0--|
A|-3--3--3--3--3--3--3------3--3--3--3--3--3--3----0-0-0-0--0-0-0-0--0-0-0-0-0--|
D|-3--3--3--3--3--3--3------3--3--3--3--3--3--3----0-0-0-0--0-0-0-0--0-0-0-0-0--|
   .  .  .  .  .  .  .      .  .  .  .  .  .  .    . . . .  . . . .  . . . .
e|----------------------------------------------------------------------------------|
B|-8---10--5------------------------------------------------------------------------|
G|-7---9---4---12-------------------------------------------------------------------|
D|-5---7---2---12-------------------------------------------------------------------|
A|-5---7---2---10-------------------------------------------------------------------|
D|-5---7---2---10-------------------------------------------------------------------|

e|-------------------------------------------------------------------------------------|
B|-5--5-----3--3----5--5---7---3-------------------------------------------------------|
G|-4--4-----2--2----4--4---6---2-------------------------------------------------------|
D|-2--2-----0--0----2--2---4---0-------------------------------------------------------|
A|-2--2-----0--0----2--2---4---0-------------------------------------------------------|
E|-2--2-----0--0----2--2---4---0-------------------------------------------------------|

e|------------------------------------------------------------------------------|
B|---------------------------------------------------------------------------3--|
G|---------------------------------------------------------------------------2--|
D|-3--3--3--3--3--3--3------3--3--3--3--3--3--3----0-0-0-0--0-0-0-0--0-0-0-0-0--|
A|-3--3--3--3--3--3--3------3--3--3--3--3--3--3----0-0-0-0--0-0-0-0--0-0-0-0-0--|
D|-3--3--3--3--3--3--3------3--3--3--3--3--3--3----0-0-0-0--0-0-0-0--0-0-0-0-0--|
   .  .  .  .  .  .  .      .  .  .  .  .  .  .    . . . .  . . . .  . . . .
e|----------------------------------------------------------------------------------|
B|-8---10--5------------------------------------------------------------------------|
G|-7---9---4---12-------------------------------------------------------------------|
D|-5---7---2---12-------------------------------------------------------------------|
A|-5---7---2---10-------------------------------------------------------------------|
D|-5---7---2---10-------------------------------------------------------------------|
Solo
e|---------------------------------------------------------|
B|-2--9-9-10-12-9-9-15-14-9-9-9-7-9-10-9-7-9-10-9-7-7-5----|
G|------------------------------------------------------9--|
D|---------------------------------------------------------|
A|---------------------------------------------------------|
E|---------------------------------------------------------|
Comments