Indochine - Jai Demand La Lune Chords & Tabs

 

Jai Demand La Lune Chords & Tabs

Indochine Chords & Tabs

Version: 2 Type: Tab 0 ratings
1 star 2 stars 3 stars 4 stars 5 stars
comments

Jai Demand La Lune Tab

   
Tabbed by: Aphrodyte
Email: aphrodyek@hotmail.com

Tuning Standard (e B G D A e)

Intro:
e----------------------------------------------------
B----------------------------------------------------
G---------------------------------------------------- 
D-7----9----/4---4--------\7----9----/4---4----------   x6
A---7----7----/4---4--------\7----7----/4---4--------
E----------------------------------------------------

J'ai demandé à la Lune 
Et le soleil ne le c'est pas 
je lui est montré mes brulures 
Et la lune ces moqué de moi...
[ Tab from: http://www.guitartabs.cc/tabs/i/indochine/jai_demand_la_lune_tab_ver_2.html ]
Verse:
e-------------------------------------------------------------
B-------------------------------------------------------------
G-------------------------------------------------------------
D-7----9----/4---4------9---9---7---7----\11---11---9---9-----
A---7----7----/4---4-------9---9---9---9----\11---11---9---9--
E-------------------------------------------------------------

J'ai demandé à la lune 
Si tu voulais encore de moi 
Elle ma dit j'ai pas l'habitude 
De m'occuper des cas comme sa
Et toi et moi on n'été tellement sur
Et on se disaient quelques fois
Que c'été juste une aventure et que sa ne dureré pas...

Repeat:
Intro : x6
Intro until the the electric piano begins 

Verse: all along the song
you start when the electric piano begins and you follow the singers voice .
Comments