Indigo Girls - Power Of Two Chords & Tabs

 

Power Of Two Chords & Tabs

Indigo Girls Chords & Tabs

Version: 1 Type: Tab 1 rating
1 star 2 stars 3 stars 4 stars 5 stars
comments

Power Of Two Tab



Power of two




Title of the song: Power of Two
           Artist: Indigo Girls
      Transcriber: Arvil Agomaa
	        (Meycauayan, Bulacan, Philippines)

	This is my first time to tab a song, and I really
	am certain that my work isn't perfect, so feel free 
	to make some adjustment if you want. This is a very 
	nice song. Have fun!!! :)
Corrections are welcome, e-mail me at:
livra@angelfire.com
Intro:

e|-------------------------------3--2--0--0----------------------------4--0--|
b|--0/1--0/1--0----------0/1--3--3--3--1--1--3--3-----0/1--3--0-----1--1--1--|
g|---------------0--2----0-------------------0--0----------2-----2--2--------| Repeat this
d|---------------------------------------------------------0-----------------| twice
a|-----------------------2-------2-----3-----2--------2----------0-----------|
e|-----------------------3-------3-----------3-----0--3----------------------|
Verse:
e|--------2-----3-----0-----3--|--------3-----2-----0--0--0--|
b|--------3-----3-----1-----3--|--------3-----3-----1--1--1--|
g|-----------------------------|-----------0-----------------|
d|-----------------------------|-----------------------------|
a|-----------------3-----------|-----------------0-----0-----|
e|--0--2-----3-----------3-----|--0--3-----------------------|
e|--------2-----3-----0-----3--|-------------------&----2-----|
b|--------3-----3-----1-----3--|--------1-----1----&-3--3--3--| Repeat this twice
g|-----------------------------|--------2-----2----&-2-----2--| then at the 2nd time
d|-----------------------------|-----------------0-&----------| connect the &'s to the ending.
a|-----------------3-----------|-----------0-------&----------|
e|--0--2-----3-----------3-----|--0--1-------------&----------|
[ Tab from: http://www.guitartabs.cc/tabs/i/indigo_girls/power_of_two_tab.html ]
	ending	e&--0/1--1--|
		b&--3----3--|
		g&----------|
		d&--0-------|
		a&----------|
		e&----------|
Chorus:
e|-----3--3--3-----3--3--3--|--0--0--0--0--2--2--2--2--|
b|-----3--3--3-----3--3--3--|--1--1--1--1--3--3--3--3--|
g|--------------------------|--------------------------|
d|--------------------------|--------------0-----0-----|
a|--------------------------|--3-----3-----------------|
e|--3-----3-----1-----1-----|--------------------------|
e|-----3--3--3-----3--3--3--|--0--0--0--0--2--2--2--2--|
b|-----3--3--3-----3--3--3--|--1--1--1--1--3--3--3--3--|
g|--------------------------|--------------------------|
d|--------------------------|--------------0-----0-----|
a|--------------------------|--3-----3-----------------|
e|--3-----3-----1-----1-----|--------------------------|

e|-----0--0--0--0--0--0--0--|--------3--2--0--0--0--0--|
b|-----0--0--0--1--1--1--1--|--------3--3--0--0--0--0--|
g|--------------------------|--------------------------|
d|--------------------------|--------------------------|
a|--------2-----3-----3-----|--------------------------|
e|--0-----------------------|--0--3-----2--0-----0-----|

e|-----0-----0-----0--0--0--|-----0/2--2---------------|
b|-----1-----1-----1--1--1--|-----3----3---------------|
g|--------------------------|--------------------------|
d|--------------------------|--0--0----0---------------|
a|--0-----2-----3-----3-----|--------------------------|
e|--------------------------|--------------------------|

Adlib:

e|-----3/2------------------|--------------------------|
b|-----3--3--0--1--1--3--3--|--0/1--3--3--0--1---------|
g|--------------0--0--0--0--|----------2-----2---------|
d|--------------------------|----------0---------------|
a|--------------3-----------|--2-------------0---------|
e|--2-----3-----------3-----|--3-----------------------|

e|-----------------------------|-----------------------------|
b|-----------------------------|-----------------------------|
g|-----------------------------|-----------------------------|
d|-----------------------------|-----------------------------|
a|-----------------------------|-----------------------------|
e|-----------------------------|-----------------------------|

e|-----------2--0--2--3--2--0--2----------------------------|
b|--0--0--3-----------------------3-------------------------|
g|----------------------------------------------------------|
d|----------------------------------------------------------|
a|----------------------------------------------------------|
e|----------------------------------------------------------|

 

 

 




Comments