Indigenous - Blues From The Sky Chords & Tabs

 

Blues From The Sky Chords & Tabs

Indigenous Chords & Tabs

Version: 1 Type: Tab 0 ratings
1 star 2 stars 3 stars 4 stars 5 stars
comments

Blues From The Sky Tab

INDIGENOUS-BLUES FROM THE SKY INTRO RIFF

^ = Hammer-on

E|---------------------------------------------------|
B|------8------------------------8-------------------|
G|------7------------------------7-------------------|
D|------6--------------5---------6-------------------|
A|------7---------5------7-------7-------5---5^7-5^7-|
E|--0--------5^7----7---------0-----5^7----7---------|
    PLAY THIS RIFF TWICE

E|-----8------------------8--------------------------|
B|-----8------------------8--------------------------|
G|-----6----------5-------6--------------------------|
D|-----7------5-----7-----7------5---5^7-5^7---------|
A|--0-----5^7---7------0-----5^7---7-----------------|
E|---------------------------------------------------|
[ Tab from: http://www.guitartabs.cc/tabs/i/indigenous/blues_from_the_sky_tab.html ]
E|---------------------------------------------------|
B|------8------------------------8-------------------|
G|------7------------------------7-------------------|
D|------6--------------5---------6-------------------|
A|------7---------5------7-------7-------5---5^7-5^7-|
E|--0--------5^7----7---------0-----5^7----7---------|

E|-----10-------------------8-------------------------|
B|-----10-------------------8-------------------------|
G|------8----------7--------6-------------------------|
D|------9------7-----9------7------5---5^7-5^7--------|
A|---------7^9---9-------0-----5^7---7----------------|
E|--7-------------------------------------------------|


E|----------------------------------------------------|
B|-----8----------------------8-----------------------|
G|-----7----------------------7-----8-----8-----------|
D|-----6-----------5----------6-----7-----7-----------|
A|-----7------5------7--------7-----------------------|
E|--0-----5^7---7----------0------7-----7-------------|

THAT?S AS FAR AS I?VE GOTTEN RIGHT NOW.  AFTER THIS HE GETS INTO SOME HEAVY BLUES SOLO THAT I HAVE NO IDEA 
TO PLAY.  GOOD LUCK

kcLEE
Comments