Incubus - Zee Deveel Chords & Tabs

 

Zee Deveel Chords & Tabs

Incubus Chords & Tabs

Version: 3 Type: Tab 0 ratings
1 star 2 stars 3 stars 4 stars 5 stars
comments

Zee Deveel Tab

intro/verse

e|---------------------------------------------------------|
B|-------3--3-----0----------------------------------------|
G|-------4--4-----1-------0--------------------------------|
D|----5--5--5--0--2--0----0--6-----------------------------|
A|----5--5--5--0--2--0--4----------------------------------|
E|-0--3-----------0----------------------------------------|

pre chorus

e|----------------------------------5--x--5--------5--x--5-|
B|----5--x--5--------5--x--5--------5--x--6--------5--x--5-|
G|----6--x--6--------6--x--6--------6--x--6--------6--x--6-|
D|----6--x--6--0-----6--x--6--0--------------0-------------|
A|-4-----------0--4-----------0--------------0-------------|
E|-------------------------------5--------------5----------|

e|----------------------------------5--5--5----------------|
B|----5--x--5--------5--x--5--------5--5--5----------------|
G|----6--x--6--------6--x--6--------6--6--6------3----3----|
D|----6--x--6--0-----6--x--6--0------------------4----4----|
A|-4-----------0--4-----------0--------------4---4----4----|
E|-------------------------------5-----------2-------------|

chorus

e|----------------------------------------5--5--5----------|
B|------0--0--0----------8--8--8----------5--5--5----------|
G|-1----1--1--1--0--8----8--8--8--0-------6--6--6----------|
D|-2----2--2--2--0--8----8--8--8--0--7----7--7--7--2--2--2-|
A|-2----2--2--2--0--6----6--6--6--0--7----7--7--7--2--2--2-|
E|-0----0--0--0----------------------5----5--5--5--0--4--4-|

e|----------------------------------------5--5--5----------|
B|------0--0--0----------8--8--8----------5--5--5----------|
G|-1----1--1--1--0--8----8--8--8--0-------6--6--6----------|
D|-2----2--2--2--0--8----8--8--8--0--7----7--7--7--2--2--2-|
A|-2----2--2--2--0--6----6--6--6--0--7----7--7--7--2--2--2-|
E|-0----0--0--0----------------------5----5--5--5--0--4--0-|

pre solo

e|---------------------------------------------------------|
B|---------------------------------------------------------|
G|---------------------------------------------------------|
D|-2--2--2-------------------------------------------------|
A|-2--2--2-------------------------------------------------|
E|-0--4--0-------------------------------------------------|

solo
[ Tab from: http://www.guitartabs.cc/tabs/i/incubus/zee_deveel_tab_ver_3.html ]
e|--------------------------------------------------------|
B|-5/19--19--19--20-p19--17--19--19--19--20-p19--17-------|
G|---------------------------------------------------19---|
D|--------------------------------------------------------|
A|--------------------------------------------------------|
E|--------------------------------------------------------|

e|-------------------------------------------------19-----|
B|--------------------------------------------------------|
G|-18--16--18--16--18--19--18--16--18--19--18--16------16-|
D|--------------------------------------------------------|
A|--------------------------------------------------------|
E|--------------------------------------------------------|

e|---------18---------19------18------18------------18----|
B|--------------------------------------------------------|
G|-16--15------15/16------15------15--------15--15--------|
D|--------------------------------------------------------|
A|--------------------------------------------------------|
E|--------------------------------------------------------|

e|-----19----------19-----18--18------18------------------|
B|--------------------------------------------18--18--18b-|
G|-15------16--16------15---------15------15--------------|
D|--------------------------------------------------------|
A|--------------------------------------------------------|
E|--------------------------------------------------------|
              
               * crazy effects here (i think he uses a ring modulator)
e|-------------0------------------------------------------|
B|-15--1616b-----0---------------------------------------|
G|--------------------------------------------------------|
D|--------------------------------------------------------|
A|--------------------------------------------------------|
E|--------------------------------------------------------|

interlude

e|--------------------------------------------------------|
B|--------------------------------------------------------|
G|-------------------1-----6------------------------------|
D|-5-----5--6--5--0--2--0--6--0--6------------------------|
A|-5--0--5--6--5--0--2--0--4--0--6--0---------------------|
E|-3--0--3--4--3-----0-----------4--0---------------------|

outro

e|--------------------------------------------------------|
B|--------------------------------------------------------|
G|--------------------------------------------------------|
D|-2--2--2------------------------------------------------|
A|-2--2--2------------------------------------------------|
E|-0--4--0------------------------------------------------|
Comments