Incubus - Zee Deveel Chords & Tabs

 

Zee Deveel Chords & Tabs

Incubus Chords & Tabs

Version: 2 Type: Tab 0 ratings
1 star 2 stars 3 stars 4 stars 5 stars
comments

Zee Deveel Tab

-----------------------------------------------------------------------
			     Zee Deveel-Incubus
-----------------------------------------------------------------------
Tabbed by:MusicFreak78
Email:Dcharvoz@houston.rr.com
	
Tuning:normal

   Intro/Main riff.

e|----------------------------------------------------------------
B|----------------------------------------------------------------
G|------44--1-6--13-----------------------------------------------
D|------00--2-x--x------------------------------------------------
A|------xx--2-4--11-----------------------------------------------
E|-0/3-33--0-----------------------------------------------------

      PreChorus
e|----------------55----55----------------------------------------
B|---55----55-----55----55----------------------------------------
G|---66----66-----66----66----------------------------------------
D|---66----66-----77----77----------------------------------------
A|-4-44--3-33-----77----77----------------------------------------
E|--------------5-55--5-55----------------------------------------

     Chorus
e|--------------------------------------------------------
B|--------------------------------------------------------
G|-9999-8888-6666-1-1-------------------------------------
D|-xxxx-xxxx-xxxx-252-------------------------------------
A|-7777-6666-4444-252-------------------------------------
E|-0000-----------030-------------------------------------
[ Tab from: http://www.guitartabs.cc/tabs/i/incubus/zee_deveel_tab_ver_2.html ]
    Solo
e|-----14--14/15-14-12--14-14/15-12-----------------------------
B|--0---------------------------------15-14-12/14-12-14/15-14-----
G|----------------------------------------------------------------
D|----------------------------------------------------------------
A|----------------------------------------------------------------
E|----------------------------------------------------------------

e|--12-14/15-14-12/20-12-12-11/19-11/12-18--11/18-11/18-11--11/18/11-
B|-------------------------------------------------------------------
G|-------------------------------------------------------------------
D|-------------------------------------------------------------------
A|-------------------------------------------------------------------
E|-------------------------- ----------------------------------------

e|-12-11-11/17-17-12/11/17-13-13-13/14/13-9/10---------------------
B|-----------------------------------------------------------------
G|-----------------------------------------------------------------
D|-----------------------------------------------------------------
A|-----------------------------------------------------------------
E|-----------------------------------------------------------------
  At this part in the solo he starts doing something weird with his guitar,
which I don't think I can tab out.

  I think that's basically the song... that solo probably has some wrong parts,
questions and help with that are welcome.
Comments