Incubus - Zee Deveel Chords & Tabs

 

Zee Deveel Chords & Tabs

Incubus Chords & Tabs

Version: 1 Type: Bass Tab 0 ratings
1 star 2 stars 3 stars 4 stars 5 stars
comments

Zee Deveel Bass Tab

Band- Incubus
Song- Zee Deveel

Intro 

G|----------|
D|----------|
A|----------|
E|------12\-|


Verse

G|---------|---------|
D|---------|------6--|
A|---------|---4-----|
E|3\-------|0-------0|


Prechorus

G|---------|----------|---------|---------|---------|----------|---------|---------|
D|---------|----------|---------|7--------|---------|----------|---------|---------|
A|4~-------|4-6h7-6---|---------|---7-----|4~-------|4-6h7-6---|------4--|---------|
E|---------|--------7-|5~-------|------5--|---------|--------7-|5--7-----|2--4--5--|


Chorus

G|----------|----------|----------|---------| x3
D|----------|----------|----------|---------| 
A|----------|6--6--66-6|----------|---------|
E|0--0--00-0|----------|5--5--55-5|0--3--3--|

G|----------|----------|----------|---------| 
D|----------|----------|----------|---------| 
A|----------|6--6--66-6|----------|---------|
E|0--0--00-0|----------|5--5--55-5|0--3--0--|


-> play Verse again


Prechorus
[ Tab from: http://www.guitartabs.cc/tabs/i/incubus/zee_deveel_btab.html ]
G|---------|----------|---------|---------|---------|----------|---------|---------|
D|---------|----------|--------x|7h9-7----|---------|----------|---------|---------|
A|4~-------|4-6h7-6---|---------|------7--|4~-------|4-6h7-6---|------4--|---------|
E|---------|--------7-|5~-------|---------|---------|--------7-|5--7-----|2--4--5--|


Chorus

G|----------|----------|----------|---------| x3
D|----------|----------|----------|---------| 
A|----------|6--6--66-6|----------|---------|
E|0--0--00-0|----------|5--5--55-5|0--3--3--|

G|----------|----------|----------|  |---------|---R---| x3 |---------|
D|----------|----------|----------|  |---------|---E---|    |---------|
A|----------|6--6--66-6|----------|  |---------|---S---|    |---------|
E|0--0--00-0|----------|5--5--55-5|  |0--3--0--|---T---|    |0--3--0--|


Interlude

G|---------|---------| x12 |----------|---------| X4
D|---------|------6--|     |----------|------6--| 
A|---------|---4-----|     |----------|---4-4---|
E|3~-------|0-------0|     |3--33-33-3|0-0-----0|

G|---------|--R--| x4
D|---------|--E--|
A|---------|--S--|
E|3\-------|--T--|


Chorus

G|----------|----------|----------|---------| x3
D|----------|----------|----------|---------| 
A|----------|6--6--66-6|----------|---------|
E|0--0--00-0|----------|5--5--55-5|0--3--3--|

G|----------|----------|----------|---------|--R--|---------|
D|----------|----------|----------|---------|--E--|---------|
A|----------|6--6--66-6|----------|---------|--S--|---------|
E|0--0--00-0|----------|5--5--55-5|0--3--0--|--T--|0--3--0~-|
Comments