Incubus - Wish You Were Here Chords & Tabs

 

Wish You Were Here Chords & Tabs

Incubus Chords & Tabs

Version: 9 Type: Tab 0 ratings
1 star 2 stars 3 stars 4 stars 5 stars
comments

Wish You Were Here Tab

   
Wish You Were Here-Incubus
Morning View

E A D G B E

Intro:

e-----------------------------------------------------------------
b-----------------------------------------------------------------
g----4-4-4-0-----4-4---4-4-4-4-4-0---------------0-2-2-2-2---2p0--
d----2-2-2-0-2---2-2---2-2-2-2-2-0--4---4-4-7-7--0-2-2-2-2---2p0--
a-0----------2----------------------2---2-2-5-5--0-2-2-2-2---2p0--
e-----------------------------------2---2-2-5-5--0-0-0-0-0---0----

e-----------------------------------------------------------------
b-----------------------------------------------------------------
g-4---4-4-4-4-4---4----4-4----4-0---------------------------91111-
d-2---2-2-2-2-2---2----2-2----2-0---4---4-4-4/7-7--0-2-2-0--x-x-x-
a-0---0-0-0-0-2---2----2-2----2-0---4---4-4-4/7-7--0-2-2-0--7/9-9-
e-----------------------------------2---2-2-2/5-5--0-0-0-0--------

Fig 1. 

e-----------------------------------------------------------------
b-----------------------------------------------------------------
g-4---4-4-4-4---4-4-4-4--4-------------------4-4-4-4---4----------
d-2---2-2-2-2---2-2-2-2--2-0--4---4-4/7-7--0-2-2-2-2---2-0--------
a-0---0-0-0-2---2-2-2-2--2-0--2---2-2/5-5--0-2-2-2-2---2-0--------
e-----------0---0-0-0-0--0-0--2---2-2/5-5--0-0-0-0-0---0-0--------

e-----------------------------------------------------------------
b-----------------------------------------------------------------
g-4---4-4-4-4-4---4-4-4-4-4--4--------------------4-4-4-4-4-4-4-4-
d-2---2-2-2-2-2---2-2-2-2-2--2--------------------2-2-2-2-2-2-2-2-
a-0---0-0-0-0-2---2-2-2-2-2--2-0--4--4-4-4-7-7--0-2-2-2-2-2-2-2-2-
e-------------0---0-0-0-0-0--0-0--2--2-2-2-5-5--0-0-0-0-0-0-0-0-0-

Verses w/ slight delay
[ Tab from: http://www.guitartabs.cc/tabs/i/incubus/wish_you_were_here_tab_ver_9.html ]
e-----0-----------------------12------------------0---------------
b---7---7---7----------0------------9-10--------------------------
g-9-------9-------------------------9-9---------9-----------------
d-------------11-----9---9h11-------------------------------------
a-----------------------------------------------------------------
e-----------------------------------------------------------------

e-----0----------------------------------------0-0-0-0------------
b---7---7---7----------0--------9--------------0-0-0-0------------
g-9-------9-------------------9---9----11---9---------------------
d-------------11-----9---9h11-------11----------------------------
a-----------------------------------------------------------------
e-----------------------------------------------------------------

Chorus: Fig 1.

Bridge:

e-----0-0-0-0------------0-0--0-------------------0-0---0-0-0-0---
b-----0-0-0-0------------0-0--0-------------------0-0---0-0-0-0---
g-6-----------6---6-6-9--9-9--9--7-----7-7-7--7---7-7---7-7-7-7---
d-x-----------x---x-x-x--x-x--x--x-----x-x-x--x-----------x-x-x---
a-4-----------4---4-4-7--7-7--7--5-----5-5-5--5-----------5-5-5---
e-----------------------------------------------------------------

e------0-0------------------------------0-0-0---------0-0-0-0-0-0-
b------0-0------------------------------0-0-0---------0-0-0-0-0-0-
g-6-----------6---9-9-9-9-9-9-9\7--7-------------7----7-7-7-7-7-7-
d-x-----------x---x-x-x-x-x-x-x-x--x-------------x----x-x-x-x-x-x-
a-4-----------4---7-7-7-7-7-7-7\5--5-------------5----5-5-5-5-5-5-
e-----------------------------------------------------------------

e------0-0--0-0---------------------0-----------------------------
b------0-0--0-0---------------------0-----------------------------
g-6--------------6----9-9-9-9-9-9-9-7----7-7-7-7---12-12-12-12-12-
d-x--------------x----x-x-x-x-x-x-x-x----x-x-x-x---x--x--x--x--x--
a-4--------------4----7-7-7-7-7-7-7-5----5-5-5-5---10-10-10-10-10-
e-----------------------------------------------------------------

e------0-0--0-0------------------0-0-----0-0----------------------
b------0-0--0-0------------------0-0-----0-0----------------------
g-6--------------9----9-9----9-9------7-------12-12-12-12-12-12-12
d-x--------------x----x-x----x-x------x-------x--x--x--x--x--x--x-
a-4--------------7----7-7----7-7------5-------10-10-10-10-10-10-10
e-----------------------------------------------------------------

thatís it

whoa, itís about time there was a right fuckiní tab
for this song...lolz

trevor jones
timmy91199@yahoo.ca
Comments