Incubus - Wish You Were Here Chords & Tabs

 

Wish You Were Here Chords & Tabs

Incubus Chords & Tabs

Version: 5 Type: Tab 0 ratings
1 star 2 stars 3 stars 4 stars 5 stars
comments

Wish You Were Here Tab

Artist: Incubus	
Song: I Wish You Were Here
Album: Morning View
Tabbed by Andrew (kraftkid87@hotmail.com)
Thanks to Claudio Anthony Morizio for help with this tab as well

(standard tuning)
This is the main guitar riff played during the intro and chorus. The intro is played at low volume with distortion and then after it's played twice kick in full volume and probably octaver
E-----------------------------------------------------------------------------
B-----------------------------------------------------------------------------
G--------4-----4------4-------7-------2--------------------------------------
D--------2-----2----- 4-------7-------2-------------------------------------
A--------0-----2------2-------5-------0--------------------------------------
E----------------------2-------5-------0--------------------------------------
[ Tab from: http://www.guitartabs.cc/tabs/i/incubus/wish_you_were_here_tab_ver_5.html ]
E-----------------------------------------------------------------------------
B-----------------------------------------------------------------------------
G--------4-----4----------------------------------------------------------
D--------2-----2----- 4-------7------2-------------------------------------
A--------0-----2------4-------7------2---------------------------------------
E----------------------2-------5-------0-------------------------------------


Here's the lead riff played during the verses (played with delay)
E--------------------------------------------------12-----
B-----------------------------------------------10--------
G---9-11-11-9-11-9--------------------11-9----------
D----------------------10-------9-11-9------------------
A---------------------------------------------------------
E----------------------------------------------------------



E-----------------------------------------------------------
B-----------------------------------------------------------
G---9-11-11-9-11-9------------------------9-9-11-----
D----------------------10--------9-11-9-11--------------
A-----------------------------------------------------------
E------------------------------------------------------------
                                    (repeat)
Comments