Incubus - Wish You Were Here Chords & Tabs

 

Wish You Were Here Chords & Tabs

Incubus Chords & Tabs

Version: 3 Type: Tab 0 ratings
1 star 2 stars 3 stars 4 stars 5 stars
comments

Wish You Were Here Tab

Incubus
"wish you were here"

Chorus:
---------------------I--------------------I
---------------------I--------------------I
-2-------4---7-------I--2-----------------I
-2---2---4---7---2---I--2---2---4---7---2-I
-0---2---2---5---2---I--0---2---4---7---2-I
-----0-----------0---I------0---2---5---0-I

Verse:
---------------------------12-----------I
------------------------------10p9h10---I
--9h11p9h11p9h11---------9--------------I
-----------------11-9h11----------------I
----------------------------------------I
----------------------------------------I
[ Tab from: http://www.guitartabs.cc/tabs/i/incubus/wish_you_were_here_tab_ver_3.html ]
--------------------------------------I
---------------------------9----------I
--9h11p9h11p9h11---------9---9----11--I
-----------------11-9h11-------11-----I
--------------------------------------I
--------------------------------------I

you can just play these chords if you'd like over the verses
-----------------I
-----------------I
-4---2-------7---I
-4---2---4---7---I
-2---0---4---5---I
---------2-------I

Bridge:
--------------I
--------------I
------2-------I
--4---2---5---I
--4---0---5---I
--2-------3---I

that's basically it i guess.

wushu
Comments