Incubus - Wish You Were Here Chords & Tabs

 

Wish You Were Here Chords & Tabs

Incubus Chords & Tabs

Version: 12 Type: Tab 0 ratings
1 star 2 stars 3 stars 4 stars 5 stars
comments

Wish You Were Here Tab

   
----------------------------------------------------------------------
                   Wish You Were Here - Incubus
----------------------------------------------------------------------

By: Jake Soucie a.k.a. lpincubusplayer

Effects:
Distortion
Delay
Phaser
and if you have two speakers and an acoustic simulator going to one of the 
speakers then use it.

h-hammer-on
p-pull-off
/or\-slide
x-muted
#+-use acoustic sim on one speaker and distortion on the other

Intro (clean)X1
e|-0-00-0-000---------------0-00-0-000--------------------|
B|-5-55-5-555---------------5-55-5-555--------------------|
G|-4-44-4-444-4-44/77-2-2-2-4-44-4-444-3-33/66-1-9/11-11--|
D|-2-22-2-222-4-44/77-2-2-2-2-22-2-222-4-44/77-2-x/x--x---|
A|-0-00-2-222-2-22/55-0-0-0-0-00-2-222-4-44/77-2-7/9--9---|
E|------0-000-2-22/55-0-0-0------0-000-2-22/55-0----------|

Intro pt.2 (distortion, acoustic sim were noted) X2
e|-0-00-0-000---------------0-00-0-000-------------------------|
B|-5-55-5-555---------------5-55-5-555-------------------------|
G|-4-44-4-444-4-44/77-2-2-2-4-44-4-444-3+-3+3+/6+6+-1+-1+-1+---|
D|-2-22-2-222-4-44/77-2-2-2-2-22-2-222-4+-4+4+/7+7+-2+-2+-2+---|
A|-0-00-2-222-2-22/55-0-0-0-0-00-2-222-4+-4+4+/7+7+-2+-2+-2+---|
E|------0-000-2-22/55-0-0-0------0-000-2+-2+2+/5+5+-0+-0+-0+---|

Verse (clean, light phaser, delay)X3
E----------------------12-------|
B-----7---7---------------9h10--|
G---9---9---6-------11----------|
D--------------9/11-------------|
A-------------------------------|
E-------------------------------|

E---------------------------------------|
B-----7---7-----------9----------7--7---|
G---9---9---6-------9---11--9--9----9---|
D--------------9/11---------------------|
A---------------------------------------|
E---------------------------------------|


Chorus(distortion, acoustic sim were noted) X2
e|-0-00-0-000---------------0-00-0-000-------------------------|
B|-5-55-5-555---------------5-55-5-555-------------------------|
G|-4-44-4-444-4-44/77-2-2-2-4-44-4-444-3+-3+3+/6+6+-1+-1+-1+---|
D|-2-22-2-222-4-44/77-2-2-2-2-22-2-222-4+-4+4+/7+7+-2+-2+-2+---|
A|-0-00-2-222-2-22/55-0-0-0-0-00-2-222-4+-4+4+/7+7+-2+-2+-2+---|
E|------0-000-2-22/55-0-0-0------0-000-2+-2+2+/5+5+-0+-0+-0+---|
[ Tab from: http://www.guitartabs.cc/tabs/i/incubus/wish_you_were_here_tab_ver_12.html ]
Verse (clean, light phaser, delay)X3
E----------------------12-------|
B-----7---7---------------9h10--|
G---9---9---6-------11----------|
D--------------9/11-------------|
A-------------------------------|
E-------------------------------|

E---------------------------------------|
B-----7---7-----------9----------7--7---|
G---9---9---6-------9---11--9--9----9---|
D--------------9/11---------------------|
A---------------------------------------|
E---------------------------------------|

Chorus(distortion, acoustic sim were noted) X2
e|-0-00-0-000---------------0-00-0-000-------------------------|
B|-5-55-5-555---------------5-55-5-555-------------------------|
G|-4-44-4-444-4-44/77-2-2-2-4-44-4-444-3+-3+3+/6+6+-1+-1+-1+---|
D|-2-22-2-222-4-44/77-2-2-2-2-22-2-222-4+-4+4+/7+7+-2+-2+-2+---|
A|-0-00-2-222-2-22/55-0-0-0-0-00-2-222-4+-4+4+/7+7+-2+-2+-2+---|
E|------0-000-2-22/55-0-0-0------0-000-2+-2+2+/5+5+-0+-0+-0+---|

Interlude (clean) X1
e|-----------------------|
B|-----------------------|
G|-6-666-99-999-777-777--|
D|-x-xxx-xx-xxx-xxx-xxx--|
A|-4-444-77-777-555-555--|
E|-----------------------|

Interlude pt.2 (clean) X3
e|---------------------------------|
B|---------------------------------|
G|-6-666-99-999-777-777-14-14-1414-|
D|-x-xxx-xx-xxx-xxx-xxx--x--x--x-x-|
A|-4-444-77-777-555-555-12-12-1212-|
E|---------------------------------|

Interlude pt.3 (clean)-----------------------------(distortion)
e|-0-00-0-000---------------0-00-0-000------------||----------|
B|-5-55-5-555---------------5-55-5-555------------||----------|
G|-4-44-4-444-4-44/77-2-2-2-4-44-4-444-3-33/66-1--||-9/11-11--|
D|-2-22-2-222-4-44/77-2-2-2-2-22-2-222-4-44/77-2--||-x/x--x---|
A|-0-00-2-222-2-22/55-0-0-0-0-00-2-222-4-44/77-2--||-7/9--9---|
E|------0-000-2-22/55-0-0-0------0-000-2-22/55-0--||----------|

Chorus(distortion, acoustic sim were noted) X2
e|-0-00-0-000---------------0-00-0-000-------------------------|
B|-5-55-5-555---------------5-55-5-555-------------------------|
G|-4-44-4-444-4-44/77-2-2-2-4-44-4-444-3+-3+3+/6+6+-1+-1+-1+---|
D|-2-22-2-222-4-44/77-2-2-2-2-22-2-222-4+-4+4+/7+7+-2+-2+-2+---|
A|-0-00-2-222-2-22/55-0-0-0-0-00-2-222-4+-4+4+/7+7+-2+-2+-2+---|
E|------0-000-2-22/55-0-0-0------0-000-2+-2+2+/5+5+-0+-0+-0+---|

End on (with distortion)
e|-0-|
B|-5-|
G|-4-|
D|-2-|
A|-0-|
E|---|

======================================================================
Comments