Incubus - Wish You Were Here Chords & Tabs

 

Wish You Were Here Chords & Tabs

Incubus Chords & Tabs

Version: 5 Type: Bass Tab 0 ratings
1 star 2 stars 3 stars 4 stars 5 stars
comments

Wish You Were Here Bass Tab

   
+------------------------------------------------+
+ BAND    : Incubus                              +
+ ALBUM   : Morning View                         +
+ SONG    : Wish You Were Here (4 String Bass)   +
+ AUTHOR  : Mellowbassfunkster                   +
+------------------------------------------------+
+ SYMBOLS                                        +
+     h - hammer on                              +
+     p - pull off                               +
+     b - bend string up                         +
+     r - release bend                           +
+     / - slide up                               +
+     \ - slide down                             +
+     v - vibrato (sometimes written as ~)       +
+     t - tap (with strumming hand)              +
+     x - muted, struck string                   +
+------------------------------------------------+

INTRO(x2)
G|------------------------------------------------------------|
D|------------------------------------------------------------|
A|--------------------2--22255-77-7-77------------------------|
E|---5--5550-00-0-00------------------------------------------|

G|------------------------------------------------------------|
D|------------------------------------------------------------|
A|------------------------------------------------------------|
E|---5--5550-00-0-00--2-222/5500-0-00-------------------------|


VERSE
     part1 (x2)
G|------------------------------------------------------------|
D|------------------------------------------------------------|
A|---2---0--------------2---0-------------9-14b16r14----------|
E|-----------2---/10------------2---/10-----------------------|
     part2
G|------------------------------------------------------------|
D|------------------------------------------------------------|
A|---2---0--------------2---0-------------999-999-------------|
E|-----------2---/10------------2---/10-----------------------|

[ Tab from: http://www.guitartabs.cc/tabs/i/incubus/wish_you_were_here_btab_ver_5.html ]
CHORUS
     part1(x2)
G|------------------------------------------------------------|
D|------------------------------------------------------------|
A|--------------------2--22255-77-7-77------------------------|
E|---5--5550-00-0-00------------------------------------------|

G|------------------------------------------------------------|
D|------------------------------------------------------------|
A|------------------------------------------------------------|
E|---5--5550-00-0-00--2-222/5500-0-00-------------------------|
     part2
G|------------------------------------------------------------|
D|------------------------------------------------------------|
A|---2---0--------------2---0-------------9-14b16r14----------|
E|-----------2---/10------------2---/10-----------------------|






VERSE
     part1
G|-------------------------------------------------------------
D|-------------------------------------------------------------
A|---2-22x-0--0---------------------2-22x-0-00--0--------------
E|---------------2-22x--10-1010-10\----------------2-22x-10-10-

G|-----------|
D|-----------|
A|-9-14b16r14|
E|-----------|
     part2
G|-------------------------------------------------------------
D|-------------------------------------------------------------
A|---2-22x-0-00-0---------------------2-22x-0-00--0------------
E|-----------------2-22x--10-1010-10\----------------2-22x-10--

G|-----------|
D|-----------|
A|-999-999---|
E|-----------|

**CHORUS part1(x2)

BRIDGE
      part1(x3)
G|------------------------------------------------------------|
D|------------------------------------------------------------|
A|------------------------------------------------------------|
E|---2-22x-2-2225555-3-33x-3-333-330--------------------------|
      part2
G|------------------------------------------------------------|
D|------------------------------------------------------------|
A|------------------------------------------------------------|
E|---2-22x-2-2225555-3-33x-3/1515151515151515-----------------|

**CHORUS part1(x2)
>>>THEN>>>
G|-------|
D|-------|
A|-------|
E|--5~---|
Comments