Incubus - Wish You Were Here Chords & Tabs

 

Wish You Were Here Chords & Tabs

Incubus Chords & Tabs

Version: 3 Type: Bass Tab 0 ratings
1 star 2 stars 3 stars 4 stars 5 stars
comments

Wish You Were Here Bass Tab

bass tab for : Wish You Were Here
by : Incubus
Tabbed by : AtK100
Album : Morning View
Standerd tuning
comments: very sure bout the intro,chorus and verse 1 but not tt sure 
bout the others. saw it on jay leno. enjoy


intro no bass

riff 1/chorus

g:-----------------------------------------------------------
d:-----------------------------------------------------------
a:-----------------------------------------------------------
e:5-5-0--0-0-7-7\10-12-12--5-5-0--0-0-2-2\5-10-10------------

verse 1

g:-----------------------------------------------------------
d:----------------------------------7-7h9p7------------------
a:-------------5----------------5----------------------------
e:7---5---1--------7---5---1---------------------------------

verse 2
[ Tab from: http://www.guitartabs.cc/tabs/i/incubus/wish_you_were_here_btab_ver_3.html ]
g:-----------------------------------------------------------
d:-----------------------------------------------------------
a:----------5---5-5--5-5--------------0--0--0--0-------------
e:7--7-7-------------------1---1--1--------------------------

g:-----------------------------------------------------------
d:---------------------------------------5h7p5---------------
a:----------5---5-5--5-5-----------5--7----------------------
e:7--7-7-------------------1---1--1--------------------------

Bridge

g:-----------------------------------------------------------
d:-----------------------------------------------------------
a:-------------------------------------------12-14-1214------
e:7-7-5-x-x-5-2-11/10-7-7-5-xx-55-1-11-10-10-----------------

riff1/chorus twice
verse 1 twice
verse 2 twice
bridge three times
Comments