Incubus - Wish You Were Here Chords & Tabs

 

Wish You Were Here Chords & Tabs

Incubus Chords & Tabs

Version: 1 Type: Bass Tab 0 ratings
1 star 2 stars 3 stars 4 stars 5 stars
comments

Wish You Were Here Bass Tab

band:incubus
song:wish you were here
tabbed by steve989	
  my first tab          /=slide
g[----------------------------------------------------------------------------------------
d[----------------------------------------------------------------------------------------
a[0-0---------2--2-2--5--5-5-----------------0-0-----------------------------------
e[-----0--0-0-------------------0--0-0-------------0--0-0-2--2-2-2-5-5-0-0-0-intro x2


g[-----------------------------------------------------------------------------------------
d[-----------------------------------9-11-9---------------------------------------------
a[--2--0------------2--0--------9------------------------------------------------------
e[----------2/10-----------2/10-------------------------------------------------------versex3


g[-----------------------------------------------------------------------------------------
d[-----------------------------------------------------------------------------------------
a[0-0---------2--2-2-5-5-7-7-7--0-0-----------------------------------------------
e[-----0--0-0------------------------------0--0-0-2--2-2-5-5-0--0-0--------------chorusx2

[ Tab from: http://www.guitartabs.cc/tabs/i/incubus/wish_you_were_here_btab.html ]
g[-------------------------------------------------------------------------------------------
d[--------------------------------9-11-9--------------------------------------------------
a[--2-0-----------2 -0-------9------------------------------------------------------------
e[-----------2/10-------2/10------------------------------------------------------------verse#2x2


g[-----------------------------------------------------------------------------------------
d[-----------------------------------------------------------------------------------------	
a[0-0---------2--2-2-5-5-7--7-7-0-0-----------------------------------------------
e[-----0--0-0------------------------------0--0-0-2--2-2-5-5-0--0-0-------------chorus#2x2


g[-----------------------------------------------------------------------------------------
d[-----------------------------------------------------------------------------------------
a[-----------------------------------------------------------------------------------------
e[222222222222-5555-333333333333--------------------------------------variationx3


g[-----------------------------------------------------------------------------------------
d[-----------------------------------------------------------------------------------------
a[-----------------------------------------------------------------------------------------
e[222222222222-5555-333333333333/15x8------------------------------x1



repeat chorus
if there are any corrections ,  please tell

Comments