Incubus - When It Comes Chords & Tabs

 

When It Comes Chords & Tabs

Incubus Chords & Tabs

Version: 5 Type: Tab

When It Comes Tab

Intro:W/Super Phaser

E|-----------------------------------------------------------|
B|-----------------------------------------------------------|
D|-----------------------------------------------------------|
G|-----------------------------------------------------------|
A|-----------------------------------------------------------|
E|--12-10-9-10-9h10p9-99-xx-99-7-9-10-10-10------------------|
Pm.......................................release near end of intro

E|--------------------------------------------------------------|
B|--------------------------------------------------------------|
D|--------------------------------------------------------------|
G|--------------------------------------------------------------|
A|--9^p0-0------------------------------------------------------|
E|---------0-9--------------------------------------------------|

E|--------------0---------------------------------------------|
B|------------------------------------------------------------|
D|--------------9~------------5-4~----------------------------|
G|--3-2-0-0-0-------3-2-0-0-0---------------------------------|
A|--------------7~------------3-2~----------------------------|
E|------------------------------------------------------------|
w/delay

E|-------------------------------------------------------------|
B|-------------------------------------------------------------|
D|-----99-77-66---99-77-66-------------------------------------|
G|---7-99-77-66-7-99-77-66------8------------------------------|
A|---7-77-55-44-7-77-55-44------8------------------------------|
E|---5----------5---------------6------------------------------|
... r
E|-----------------------------------------------------------|
B|-----------------------------------------------------------|
D|--7777-----------7777--------------------------------------|
G|--7777-7777-9999-7777-7777-999911111111-5555/777-7-7777-7--|
A|--5555-7777-9999-5555-7777-999911111111-5555/555-5-5555-5--|
E|-------5555-7777------5555-7777-9-9-9-9-3333/555-5-5555-5--|
[ Tab from: http://www.guitartabs.cc/tabs/i/incubus/when_it_comes_tab_ver_5.html ]
E|-----------------------------------------------------------|
B|-----------------------------------------------------------|
D|-7777-9999-------------------------------------------------|
G|-7777-9999-9999-7------------------------------------------|
A|-5555-7777-9999-7------------------------------------------|
E|-----------7777-5------------------------------------------|

E|--------------0---------------------------------------------|
B|------------------------------------------------------------|
D|--------------9~------------5-4~----------------------------|
G|--3-2-0-0-0-------3-2-0-0-0---------------------------------|
A|--------------7~------------3-2~----------------------------|
E|------------------------------------------------------------|
w/delay

E|-----------------------------------------------------------|
B|-----------------------------------------------------------|
D|--7777-----------7777--------------------------------------|
G|--7777-7777-9999-7777-7777-999911111111-5555/777-7-7777-7--|
A|--5555-7777-9999-5555-7777-999911111111-5555/555-5-5555-5--|
E|-------5555-7777------5555-7777-9-9-9-9-3333/555-5-5555-5--|

E|-----------------------------------------------------------|
B|-----------------------------------------------------------|
D|-7777-9999-------------------------------------------------|
G|-7777-9999-9999-7------------------------------------------|
A|-5555-7777-9999-7------------------------------------------|
E|-----------7777-5------------------------------------------|

w/distortion
E|-----------------------------------------------------------|
B|-----------------------------------------------------------|
D|-----------------------------------------------------------|
G|-----------------------------------------------------------|
A|-----------------------------------------------------------|
E|--12-10-9-10-9h10p9-99-xx-99-7-9-10-10-10------------------|

E|-----------------------------------------------------------|
B|-----------------------------------------------------------|
D|-----------------------------------------------------------|
G|--12-10-9-10-9-10-9-10-9--10-10----------------------------|
A|--12-10-9-10-9-10-9-10-9--10-10----------------------------|
E|--12-10-9-10-9-10-9-10-9--10-10----------------------------|